Tradicionály

piesne (19)

  texty (5) / preklady (0)
  akordy (4) / taby (14)
  noty (0) / slideshow (0)

články (2)
fotogaléria
diskusia
videá
diskografia
v obchode
odkazy
koncerty
sťahuj



pridaj vlastný článok




 

Tradicionály

Fanúšikov: 1



A B C Č D E F G H CH I J K L Ľ M N O P Q R S Š T U V W X Y Z Ž



ako:
Tradicionály - Santa Claus Is Coming To Town
Tradicionály - Santa Claus Is Coming To Town

tlač

edituj
Pesničku videlo 1712 návštevníkov.

Kvalita tabov : bez hodnotenia
Hodnotilo ľudí: 0 ohodnoť aj ty
Prispievateľ:

EPO
Intro:                          Hold--
1 & 2 & 3 & 4 & 1 & 2 & 3 & 4 & 1 & 2 &
|---------3---0---|-----------------|--------|
|-----0---0-------|-3---1---0-------|-----3--|
|-0---------------|-------------2---|-2------|
|-0---------------|-2-------2---0---|-0------|
|-----------------|-3-------3---3---|-3------|
|-3-------3-------|-----------------|--------|

"Segne:"
1 & 2 & 3 & 4 & 1 & 2 & 3 & 4 & 1 & 2 & 3 & 4 & 1 & 2 & 3 & 4 &
|-----------------|-0--23---3-------|-----------------|-0---------------|
|-0--13---3---3---|-0-------0-------|-0--13---3---4---|-0--11---1-------|
|-0-------0-------|-0-------0---2---|-0-------0---4---|-0-----------2---|
|-0-------0-------|-----------------|-0-------0---5---|---------1-------|
|-----------------|-3-------3-------|-----------------|-3-------3-------|
|-3-------2-------|-----------------|-3-------3-------|-----------------|

To Coda
1 & 2 & 3 & 4 & 1 & 2 & 3 & 4 & 1 & 2 & 3 & 4 & 1 & 2 & 3 & 4 &
|-----------------|-----------------|---------2---0---|-----------------|
|-0---3-------0---|-----1-----------|-----0---0-------|-3---1---0-------|
|-0-------0-------|-2-----------2---|-0---------------|-------------2---|
|-0-------0-------|-0-------4-------|-0---------------|-2-------2---0---|
|-----------------|---------3-------|-----------------|-3-------3---3---|
|-3-------3-------|-----------------|-3-------3-------|-----------------|

1 & 2 & 3 & 4 & 1 & 2 & 3 & 4 & 1 & 2 & 3 & 4 & 1 & 2 & 3 & 4 &
|-----------------|-0--23---3-------|-----------------|-0---------------|
|-0--13---3---3---|-0-------0-------|-0--13---3---4---|-0--11---1-------|
|-0-------0-------|-0-------0---2---|-0-------0---4---|-0-----------2---|
|-0-------0-------|-----------------|-0-------0---5---|---------1-------|
|-----------------|-3-------3-------|-----------------|-3-------3-------|
|-3-------2-------|-----------------|-3-------3-------|-----------------|

1 & 2 & 3 & 4 & 1 & 2 & 3 & 4 & 1 & 2 & 3 & 4 & 1 & 2 & 3 & 4 &
|-----------------|-----------------|-----------------|-------------3---|
|-0---3-------0---|-----1-----------|-----3-------3---|-----3-----------|
|-0-------0-------|-2-----------2---|-0-------0-------|-0-------0-------|
|-0-------0-------|-0-------4-------|-0-------0-------|-0-------0-------|
|-----------------|---------3-------|-----------------|-----------------|
|-3-------3-------|-----------------|-3-------2-------|-1-------0-------|

1 & 2 & 3 & 4 & 1 & 2 & 3 & 4 & 1 & 2 & 3 & 4 & 1 & 2 & 3 & 4 &
|-5---3---2---3---|-0---0-------3---|-5---3---2---3---|-0-----------5---|
|-2-------0-------|-0---------------|-2-------0-------|-0---------------|
|-2-------0-------|-0-------0-------|-2-------0-------|-0---------------|
|-0---------------|---------0-------|-0---------------|-----------------|
|-----------------|-3---------------|-----------------|-3---------------|
|---------3-------|---------0-------|---------3-------|-----------------|
D.S. al Coda
1 & 2 & 3 & 4 & 1 & 2 & 3 & 4 & 1 & 2 & 3 & 4 & 1 & 2 & 3 & 4 &
|-7---5---4---5---|-2---2---2---2--3|-5---3---2---0---|-----------------|
|-4-------4-------|-3---2---1-------|-7---5---3---3---|-3-----------3---|
|-4-------4-------|-2---2---2-------|-----------------|-5---------------|
|---------0-------|-0---0---0-------|-0---------------|-0--0------------|
|-----------------|-----------------|-----------------|-----3---2---0---|
|-0---------------|-----------------|-----------------|-----------------|

Coda:
1 & 2 & 3 & 4 & 1 & 2 & 3 & 4 & 1 & 2 & 3 & 4 & 1 & 2 & 3 & 4 &
|-----------------|-----------------|-----------------|-------------5---|
|-0---3-------0---|-----1-----------|-0---3-------0---|-----1-----------|
|-0-------0-------|-2-----------2---|-0-------0-------|-2---------------|
|-0-------0-------|-0-------4-------|-0-------0-------|-0-------4-------|
|-----------------|---------3-------|-----------------|---------3-------|
|-3-------2-------|-----------------|-3-------2-------|-----------------|

1 & 2 & 3 & 4 & 1 & 2 & 3 & 4 & 1 & 2 & 3 & 4 &
|---------2---0---|-----------------|-----------------|
|-----0---0-------|-3---1---0-------|-0---------------|
|-0---------------|-------------2---|-0---------------|
|-0---------------|-2-------2---0---|-4---------------|
|-----------------|-3-------3---3---|-----------------|
|-3-------3-------|-----------------|-3---------------|

 
»
Tvoje obľúbené položky
Tvoje obľúbené položky
»
Najnovšie videá
Najnovšie videá

Santa Claus is coming to town (Children

Michael Bublé - Santa Claus Is Coming T

Justin Bieber - Santa Claus Is Coming To

Frank Sinatra - Santa Claus is coming to

Mariah Carey - Santa Claus Is Coming to

Frank Sinatra, Seal - Santa Claus Is Com

»
Najnavštevovanejšie piesne
Najnavštevovanejšie piesne



home | interpreti | register piesní | cd & dvd shop | pripomienky/nápady | kontakt | ochrana údajov | inzercia

TOPlist