Rosenberg Trio

piesne (1)

  texty (0) / preklady (0)
  akordy (0) / taby (1)
  noty (0) / slideshow (0)

články (2)
fotogaléria
diskusia
videá
diskografia
v obchode
odkazy
koncerty
sťahuj



pridaj vlastný článok




 

Rosenberg Trio

Fanúšikov: 0



A B C Č D E F G H CH I J K L Ľ M N O P Q R S Š T U V W X Y Z Ž



ako:
Rosenberg Trio - Latscheben
Rosenberg Trio - Latscheben

tlač

edituj
Pesničku videlo 1935 návštevníkov.

Kvalita tabov : bez hodnotenia
Hodnotilo ľudí: 0 ohodnoť aj ty
Prispievateľ:

EPO
(pick up)
1 2 3
E ------------|
B ------------|
G ------------|
D ------------|
A ----------2-|
E --0-2-4-5---|




Am E7/#9/H C6 Am/E

1 2 3 1 2 3 1 2 3 1 2 3
E --------------------------5-4-3-2-1-------------|
B ------------------------------------5-----------|
G ------------------------------------------------|
D ----2---------3-2-----------------------------2-|
A 3-5---3-2-3-5-----5-3-2-----------------2-4-5---|
E ------------------------5-------------5---------|

Dm Em7° F6 Dm

1 2 3 1 2 3 1 2 3 1 2 3
E ------------------------------------------------|
B --------------------------3-2-------------------|
G ----2---------3-2-------------5-4-3-2-----------|
D 3-5---3-2-3-5-----5-3-2-----------------2-3-2---|
A ------------------------5-------------5-------5-|
E ------------------------------------------------|

Hm7/b5 % Am %

1 2 3 1 2 3 1 2 3 1 2 3
E ----1---1---------------------------------------|
B ----3---3---------------------------------------|
G ----2---2---------------------------------------|
D ----------------3-----3-2-3-2-------------------|
A 2--(2)-(2)--2-5---2-5-----------2-3-----2-3-2---|
E ------------------------------5-----5-5-------5-|

G7/F# F7 E7/b9 E7/b9/H

1 2 3 1 2 3 1 2 3 1 2 3
E ------------------------------------------------|
B ----3---3---------------------------------------|
G ----4---4-----------2-5-4-1---------------------|
D ----3---3---------3---------3-------------------|
A ----------------3-------------5-2---------------|
E 2-----------1-5-------------------5-4-0-2-4-5-2-|

Am E7/#9/H C6 Am/E

1 2 3 1 2 3 1 2 3 1 2 3
E --------------------------5-4-3-2-1-------------|
B ------------------------------------5-----------|
G ------------------------------------------------|
D ----2---------3-2-----------------------------2-|
A 3-5---3-2-3-5-----5-3-2-----------------2-4-5---|
E ------------------------5-------------5---------|

Dm Em7° F6 Dm

1 2 3 1 2 3 1 2 3 1 2 3
E ------------------------------------------------|
B --------------------------3-2-------------------|
G ----2---------3-2-------------5-4-3-2-----------|
D 3-5---3-2-3-5-----5-3-2-----------------2-3-2---|
A ------------------------5-------------5-------5-|
E ------------------------------------------------|

Hm7/b5 % Am %

1 2 3 1 2 3 1 2 3 1 2 3
E ----1---1---------------1-3-1-------------------|
B ----3---3-------------3------/3-2-5-3-----------|
G ----2---2---------1-4-----------------2-4-5-4-2-|
D ----------------3-------------------------------|
A 2--(2)-(2)--2-5---------------------------------|
E ------------------------------------------------|

E7/b9/H E7/b9 Am %

1 2 3 1 2 3 1 2 3 1 2 3
E ------------------------------------5-----------|
B ----------------------------------5-------------|
G 4---3---4---5-----5-4-3-2-----2-5---------------|
D ----------------------------2-----------------5-|
A --------------------------3---------------------|
E ------------------------------------------------|

G7 C C/G C

1 2 3 1 2 3 1 2 3 1 2 3
E 3-5-3-----------3-----5-----------5-----3---3---|
B ------5-3-----5-----5-------5---5-------5---5---|
G ----------5-4-----5-------5---5-----4---4---4---|
D ------------------------7--------------(5)-(5)--|
A ---------------------------------------(3)-(3)--|
E ------------------------------------------------|

C/G C C/G G7

1 2 3 1 2 3 1 2 3 1 2 3
E 3-5-3-----------3-----5-----------5-----3---3---|
B ------5-3-----5-----5-------5---5-------3---5---|
G ----------5-4-----5-------5---5-----4---4---4---|
D ------------------------7--------------(3)-(3)--|
A ---------------------------------------(5)-(5)--|
E ---------------------------------------(3)-(3)--|

G7/D G7 G7/D G7

1 2 3 1 2 3 1 2 3 1 2 3
E --5---5-5-5-5-3-------------7-7-7-7-7-5---------|
B ----------------6-3---------------------6-------|
G --------------------4---------------------7-4---|
D ------------------------------------------------|
A ------------------------------------------------|
E ------------------------------------------------|

G7/D G7 G7/D G7/E

1 2 3 1 2 3 1 2 3 1 2 3
E --5---5-5-5-5-3---------------3-5-7-5-5---5-5---|
B ----------------6-3-------3-6-------3-3---4-4---|
G --------------------4---4-----------4-4---4-4---|
D ----------------------5-------------------------|
A ------------------------------------------------|
E ------------------------------------------------|

C C C/G C

1 2 3 1 2 3 1 2 3 1 2 3
E 5-3-------------3-----5-----------5-----3---3---|
B ----5-3-------5-----5-------5---5-------5---5---|
G --------5-4-5-----5-------5---5-----4---4---4---|
D ------------------------7--------------(5)-(5)--|
A ---------------------------------------(3)-(3)--|
E ------------------------------------------------|

C/G Csus13 C7/E Dm

1 2 3 1 2 3 1 2 3 1 2 3
E 3-5-3---------------------------5---------------|
B ------5-3-------------------------5-8-7-6-------|
G ----------5-3---2-3-2---------------------------|
D -----------------------/7-7-6-7-----------------|
A ------------------------------------------------|
E ------------------------------------------------|

Dm Dm Hm7/b5 C

1 2 3 1 2 3 1 2 3 1 2 3
E --8-5--------------------10-8-7-5---------------|
B ------8-7-6-5---------------------8-6-----5-5---|
G ------------------7-7---------------------------|
D ------------------------------------------------|
A ------------------------------------------------|
E ------------------------------------------------|

Am Dm G7 C

1 2 3 1 2 3 1 2 3 1 2 3
E ----8-7-6-5-------------------------------------|
B ------------8-7-6-5-6-7-8-7-6-5-----------------|
G 5-5-----------------------------8-7-5-----5-7-8-|
D ------------------------------------------------|
A ------------------------------------------------|
E ------------------------------------------------|

H7° (g# as top note)

1 2 3
E ------------|
B 5-----------|
G ------------|
D ------------|
A ----------2-|
E --0-2-4-5---|

 
»
Tvoje obľúbené položky
Tvoje obľúbené položky
»
Najnovšie videá
Najnovšie videá

Gypsy Jazz waltz: Alex Ricci plays Latsc

Rosenberg Trio Latscheben Gypsy Swing 19

Rezar Dominguez "Cancion de amor"/"Latsc

Rosenberg Trio (+ Sylvia Houtzager) - La

Rosenberg Trio with Christiaan van Hemer

Gipsy jazz backing track- Latscheben (Wa

»
Najnavštevovanejšie piesne
Najnavštevovanejšie piesne
Latscheben - taby

»
Nové albumy interpreta
Nové albumy interpreta
CD Rosenberg Trio La familia
CD La familia
CD Rosenberg Trio Tribute to django reinhardt
CD Tribute to
django
reinhardt
2xCD Rosenberg Trio Best of [2cd]
2xCD Best of
[2cd]
CD Rosenberg Trio Live at the nsj 1992
CD Live at
the nsj
1992
CD Rosenberg Trio Noches clientes
CD Noches
clientes
CD Rosenberg Trio Gypsy swing
CD Gypsy
swing



home | interpreti | register piesní | cd & dvd shop | pripomienky/nápady | kontakt | ochrana údajov | inzercia

TOPlist