Para

piesne (96)

  texty (78) / preklady (0)
  akordy (30) / taby (14)
  noty (0) / slideshow (0)

články (236)
fotogaléria
diskusia
videá
diskografia
v obchode
odkazy
koncerty
sťahuj



pridaj vlastný článok

Jana Kirschner:
Brutálna zostava v Smoleniciach: Para a Jana Kirschner ukázali, že sú silný
tandem
- 30.07.2019 - 17:00 | Danka Šoporová To, čo začalo pokojným sedením ľudí na tr... - zoznam.sk


Billy Barman:
19-ty ročník festivalu Žákovic Open aj so špeciálnymi novinkami - 19-ty ročník festivalu Žákovic Open aj so špeciálnymi novinkami | Zdroj: Propagan... - ahudba.sk


Billy Barman:
Para, Billy Barman aj Puding Pani Elvisovej dopĺňajú bohatý line up
festivalu Grape
- Nejde o žiadne veľké prevapenie, teraz však už máš oficiálne prekvapené, že na ... - refresher.sk


Para:
Para brázdi turné naprieč Našou krajinou a zamierila si to aj do
BratislavyWikes
- PridalWikesPridané 5. apríla 2019 Názov skupiny PARA a slovné spojenie NAŠOU KRAJI... - music-zone.eu


Para:
Para symbolicky volila v Gregorovciach. Hodili to tam aj za Jána a Martinu - Večer majú v Prešove koncert. 16. mar 2019 o 19:00 (aktualizované 16. mar 2019 o 2... - korzar.sme.sk


Autumnist:
Albumy roka nahrali Para a Autumnist. Čo to hovorí o slovenskej hudobnej
scéne?
- Oliver RehákOLIVER REHÁK Radio_Head Awards 2018 Album roka Para – Našou krajin... - dennikn.sk


Para:
Para prináša nový klip k piesni Svadobná - Hudba Klipy Para Supina PARA potešila svojich fanúšikov a prichádza s novým vid... - expres.sk


Para:
Para predstavila nový videoklip, chystá aj koncertné turné - Para predstavila nový videoklip, chystá aj koncertné turné "> ... - ahudba.sk


Para:
Para chystá koncertné turné naprieč Našou krajinou - Para chystá koncertné turné naprieč Našou krajinou | Autor: Róbert Jakubička | Z... - ahudba.sk


Para:
Para vydáva album Našou krajinou na vinyle. Takýto dizajn sa len tak nevidí - 08.11.2018 - 15:30 | redakcia Šesť rokov čakali fanúšikovia na nový album stáli... - zoznam.sk


 

Para

Fanúšikov: 27



A B C Č D E F G H CH I J K L Ľ M N O P Q R S Š T U V W X Y Z Ž



ako:
Para - Žena
Para - Žena

tlač

edituj
Rok vzniku: 2012
Pesničku videlo 426 návštevníkov.

Kvalita tabov : bez hodnotenia
Hodnotilo ľudí: 0 ohodnoť aj ty
Prispievateľ:

Brano
  *** Autor textu: Para *** Autor hudby: Para
Intro:
------

C Ami

E|-----------8----8----------------5----5----------------------------------|

B|-----------8----8----------------5----5----------------------------------|

G|-----------9----9----------------5----5----------------------------------|
~ ~
D|-----------10---10---------------7----7--------5-------------------------|

A|-----------10---10---------------7----7------------7---------------------|

E|-----8-----8----8-------8--7-----5----5----5-----------------------------|


Ver. a ref.

C Ami G F

E|-----------8----8----------------5----5----------3--3--3--3----1--1--1--1|

B|-----------8----8----------------5----5----------3--3--3--3----1--1--1--1|

G|-----------9----9----------------5----5----------4--4--4--4----2--2--2--2|

D|-----------10---10---------------7----7----------5--5--5--5----3--3--3--3|

A|-----------10---10---------------7----7----------5--5--5--5----3--3--3--3|

E|-----8-----8----8-------8--7-----5----5----------3--3--3--3----1--1--1--1|


 
»
Tvoje obľúbené položky
Tvoje obľúbené položky
»
Najnovšie videá
Najnovšie videá

PARA: Žena

PARA: Žena (DVD live PARA menšina TOUR

Hemendex LIVE: Para -- Žena

Para - Žena (live@Fun radio)

PARA - Žena

Goci i Lazo - Ljubomorna zena BN Music

»
Najnavštevovanejšie piesne
Najnavštevovanejšie piesne
Svadobná - akordy a text

Linda - akordy

Abstinent - text

Náš svet je pestrý - akordy a text

Keď ťa stretnem - akordy a text

Otec - akordy a text

Doma dobre - akordy

Abstinent - akordy a text

Našou Krajinou - taby

Ako najlepšie viem - text

Ako najlepšie viem - akordy a text

Žena - akordy a text

Otec 2 - text

Zatancuj - text

Celé tie roky - akordy a text

Zatancuj - akordy a text

Linda - taby

Stopár - akordy a text

Kruhy do vody - akordy a text

Ticho - akordy a text

viac

»
Nové albumy interpreta
Nové albumy interpreta
VINYL Para Brutalna zostava [vinyl]
VINYL Brutalna
zostava
[vinyl]
CD Para Nasou krajinou
CD Nasou
krajinou
CD Para Zostava brutalna 1995-2015
CD Zostava
brutalna
1995-2015
CD Para Mensina
CD Mensina
ECD Para Povstanie
ECD Povstanie
CD Para Veci zacnu fungovat
CD Veci zacnu
fungovat



home | interpreti | register piesní | cd & dvd shop | pripomienky/nápady | kontakt | ochrana údajov | inzercia

TOPlist