Tata Bojs

piesne (107)

  texty (92) / preklady (1)
  akordy (26) / taby (6)
  noty (0) / slideshow (0)

články (231)
fotogaléria
diskusia
videá
diskografia
v obchode
odkazy
koncerty
sťahuj



pridaj vlastný článok

Katarzia:
Kaiser 54 opět slibuje přinést na MFF Karlovy Vary to nejlepší z klubové
scény. Vystoupí PSH, Tata Bojs i Katarzia
- Vydáno včera | autor: redakce Hudební label BiggBoss přináší druhý roční... - ireport.cz


Tata Bojs:
Česká skupina Tata Bojs exkluzívne na Rádio_FM Night - ...


Tata Bojs:
Tata Bojs: Kdyby přišli všichni lidi, kteří byli na naší výstavě, tak
vyprodáme tři O2 areny za sebou
- 0 Instalace k přelomovému albu Ukončete nás...! | na serveru Lidovky.cz | aktuáln... - lidovky.cz


Tata Bojs:
Tata Bojs rozzářili temný Noir - Pražští alternativní Tata Bojs dorazili 15.3. do Děčína si připomenout výročí ... - musicgate.cz


Tata Bojs:
Tata Bojs v doprovodu Dekkadancers odehráli po patnácti letech celé
Nanoalbum. Navrch pokřtili vinyl
- Vydáno před 10 hodinami Tata Bojs zahráli v novém Multifunkčním sálu DOX+ v r... - ireport.cz


Tata Bojs:
Tata Bojs pokračují v oslavách třicetin: Koncertem v galerii DOX
představili svou výstavu
- Vydáno 2018-12-12 09:07:11 Tweet Hned tři vystoupení za sebou si Tata Bojs tento t... - ireport.cz


Tata Bojs:
Tata Bojs slavili narozeniny v Ostravě. Přidal se i Vladimir 518 - Vydáno 2018-09-30 10:29:21 Loni odehráli speciální šňůru koncertů, na nichž... - ireport.cz


Vladimír Mišík:
Prázdniny v Telči startují. O víkendu zahrají Tata Bojs nebo Vladimír
Mišík
- Prázdniny v Telči startují. O víkendu zahrají Tata Bojs nebo Vladimír Mišík V... - musicserver.cz


Massive Attack:
LIVE: Top 5 prvního dne Metronome festivalu - Massive Attack, Tom Odell nebo
třicátníci Tata Bojs
- Vydáno před 18 hodinami | autor: Hedvika Pajerová Dvoudenní Metronome festival n... - ireport.cz


Tata Bojs:
Tata Bojs sú na scéne 30 rokov, už dnes ich čaká veľkolepá oslava - 22.06.2018 - 10:00 | redakcia V piatok 29. júna uplynie presne 30 rokov odo dňa, ked... - zoznam.sk


 

Tata Bojs

Fanúšikov: 5



A B C Č D E F G H CH I J K L Ľ M N O P Q R S Š T U V W X Y Z Ž



ako:
Tata Bojs - 2031 (správně)
Tata Bojs - 2031 (správně)

tlač

edituj
Rok vzniku: 2011
Poznámka: https://www.youtube.com/watch?v=buvcrkLOw58

Pesničku videlo 422 návštevníkov.

Kvalita tabov : bez hodnotenia
Hodnotilo ľudí: 0 ohodnoť aj ty
Prispievateľ:

airpaul
  *** Autor textu: Mardoša *** Autor hudby: Tata Bojs
[Intro] & [Verse]



e|-----------|--------|---------|-----------|
h|-----------|--------|---------|-----------|
G|---3---10--|--------|---------|-----------|
D|---3---10--|-8---10-|--5---7--|--8---10---|
A|---5---8---|-8---10-|--5---7--|--8---10---|
E|-----------|-6---8--|--3---5--|--6---8----|



Krásky a krasavci...


8x

e|---------------|-------------|----------|
h|---------------|-------------|----------|
G|---------------|-------------|----------|
D|---------7-7-7-|-3-3-3-5-5-5-|----------|
A|---5-5-5-------|-------------|-3-3-3-3--|
E|---------------|-------------|----------|



e|-----------------------|
h|-----------------------|
G|-----------------------|
D|-------7-3-5-----------|
A|---5---------3-3-------|
E|-----------------------|



Človek se nestará a najednou...



e|-----3---5-|---6---8------|
h|-----3---5-|---6---8------|
G|-----4---6-|---7---9------|
D|-----5---7-|---8---10-----|
A|-----5---7-|---8---10-----|
E|-----3---5-|---6---8------|


e|-----------|--------|---------|-----------|
h|-----------|--------|---------|-----------|
G|---3---10--|--------|---------|-----------|
D|---3---10--|-8---10-|--5---7--|--8---10---|
A|---5---8---|-8---10-|--5---7--|--8---10---|
E|-----------|-6---8--|--3---5--|--6---8----|

 
»
Tvoje obľúbené položky
Tvoje obľúbené položky
»
Najnovšie videá
Najnovšie videá

Tata bojs - Usínací/2031 (vinyl versio

Tata Bojs - 2031 (Live@Divadlo v Celetn

Tata Bojs - Olomouc - 6.12.2012 - 2031

Tata Bojs zdravice ze studia SONO

Tata Boys - 2031

Tata Bojs - 2031 (Live @ Divadlo v Celet

»
Najnavštevovanejšie piesne
Najnavštevovanejšie piesne
Pěšáci - akordy a text

Radioamatér - akordy

Virtuální duet - akordy a text

Pěšáci - akordy a text

Tanečnice - akordy a text

Filmařská - akordy

Opakování - akordy a text

Tanečnice - akordy

Šťastnější - akordy a text

Tomášovi - akordy a text

Šťastnější (přesněji) - akordy

Virtuální duet - přesněji - akordy

Jaro - akordy

B.M.O. (Black Moving Object) - text

Vesmírná (akustická verze) - akordy

Jednotka času - akordy a text

Duševní - akordy a text

Lasičky - akordy a text

Náměsíčná - akordy a text

Hlídači - akordy a text

viac

»
Nové albumy interpreta
Nové albumy interpreta
2xVINYL Tata Bojs Nanoalbum [vinyl]
2xVINYL Nanoalbum
[vinyl]
2xCD Tata Bojs Sagali leta 89-97
2xCD Sagali
leta 89-97
2xVINYL Tata Bojs Futuretro [vinyl]
2xVINYL Futuretro
[vinyl]
VINYL Tata Bojs Socr Live [vinyl]
VINYL Live
[vinyl]
CD Tata Bojs Koncert se socr ve forum karlin
CD Koncert se
socr ve
forum
karlin
CD Tata Bojs A/b
CD A/b



home | interpreti | register piesní | cd & dvd shop | pripomienky/nápady | kontakt | ochrana údajov | inzercia

TOPlist