Simon & Garfunkel

piesne (169)

  texty (84) / preklady (71)
  akordy (32) / taby (13)
  noty (0) / slideshow (0)

články (12)
fotogaléria
diskusia
videá
diskografia
v obchode
odkazy
koncerty
sťahuj



pridaj vlastný článok

Paul Simon:
Sezóna rozlúčkových turné pokračuje. Paul Simon ko - Paul Simon Paul Simon Zdroj: Reuters Medzičasom 76-ročný rodák z Newarku v americko... - aktuality.sk


Paul Simon:
Paul Simon vydá nový album Stranger To Stranger, vypočujte si prvý singel - včera o 15:00 | redakcia Americký folk-rockový hudobník Paul Simon oznámil, že 3... - zoznam.sk


Paul Simon:
Paula Simona zatkli za výtržníctvo - Amerického hudobníka Paula Simona v sobotu zatkli za výtržníctvo. Polícia spolu so ...


Paul Simon:
Sting a Paul Simon vo februári vyrazia na spoločné turné - Spoločné americké turné legendárnych hudobníkov Stinga a Paula Simona sa začne 8. ...


Simon & Garfunkel:
hit dňa 9.6. - hit dňa 9.6. *Skupinu Union Gap založil spevák Gary Puckett v americkom San Diegu v...


Paul Simon:
Hit dňa na nedeľu 17.2. - * Skupina Slik vznikla v škótskom Glasgowe v roku 1970. Bola čiastočným pokračovaní...


Simon & Garfunkel:
Nostalgie? Nechť žije! - musicserver.cz


Art Garfunkel:
Simon & Garfunkel - 600 000 lidí poslouchá a slyší - musicservice.cz


Simon & Garfunkel:
600 000 ľudí počúva a počuje - spievajú Simon & Garfunkel - folk.sk


Art Garfunkel:
Simon & Garfunkel ukončili turné - Simon & Garfunkel ukončili turné Inzercia Rím 1. augusta (TASR) - Gigantick... - sme.sk


 

Simon & Garfunkel

Fanúšikov: 14



A B C Č D E F G H CH I J K L Ľ M N O P Q R S Š T U V W X Y Z Ž



ako:
Simon & Garfunkel - El Condor Pasa (jednoduchá melodie)
Simon & Garfunkel - El Condor Pasa (jednoduchá melodie)

tlač

edituj
Poznámka: pripominky prosim na jancik.lukas@seznam.cz

Pesničku videlo 270 návštevníkov.

Kvalita tabov : bez hodnotenia
Hodnotilo ľudí: 0 ohodnoť aj ty
Prispievateľ:

Lukáš J.
E --------------------------------0----
H ---------------------0---3-3-0-----3-
G ------------0----0-2-----------------
D ---2-1-2-4----4----------------------
A 2------------------------------------
E -------------------------------------

E -------------------------------------
H 0---0--------------------------------
G ------2-0----0----------------0---0-2
D ----------2-----2-----2-1-2-4---4----
A --------------------2----------------
E -------------------------------------

E ------------0------------------------
H 0---3-3-0-----3--0---0---------------
G -----------------------2-0-----0-----
D ---------------------------2---------
A -------------------------------------
E -------------------------------------

E ------0----0---0---0--3-0-------0----
H ----0----4---4---4--------3---3---3--
G -------------------------------------
D -2-----------------------------------
A -------------------------------------
E -------------------------------------

E -------0----0---0---0---3--0---------
H 0---------4---4---4------------------
G ----0--------------------------------
D -------------------------------------
A -------------------------------------
E -------------------------------------

E ------0------------------------------
H 3---3---3-0---0----------------------
G ----------------2-0-----0------------
D --------------------2-----2----------
A -------------------------------------
E -------------------------------------

 
»
Tvoje obľúbené položky
Tvoje obľúbené položky
»
Najnovšie videá
Najnovšie videá

El Condor Pasa - Paul Simon & Garfu

SIMON AND GARFUNKEL EL CONDOR

El Condor Pasa LYRICS VIDEO Simon &

Simon & Garfunkel - El Condor Pasa (

El Condor Pasa (If I Could)

Leo Rojas - El Condor Pasa (Videoclip)

»
Najnavštevovanejšie piesne
Najnavštevovanejšie piesne
»
Nové albumy interpreta
Nové albumy interpreta
2xVINYL Simon & Garfunkel Paramount theatre 1993 [vinyl]
2xVINYL Paramount
theatre
1993
[vinyl]
2xCD+DVD Simon & Garfunkel Bridge over troubled water (40th anniversary editi
2xCD+DVD Bridge
over
troubled
water
(40th
anniversar
y editi
CD Simon & Garfunkel Parsley, sage,.. -sacd-
CD Parsley,
sage,..
-sacd-
2xVINYL Simon & Garfunkel Tripping down the alleyways [vinyl]
2xVINYL Tripping
down the
alleyways
[vinyl]
VINYL Soundtrack Graduate [vinyl]
VINYL Graduate
[vinyl]
VINYL Simon & Garfunkel Greatest hits [vinyl]
VINYL Greatest
hits
[vinyl]



home | interpreti | register piesní | cd & dvd shop | pripomienky/nápady | kontakt | ochrana údajov | inzercia

TOPlist