Frank Sinatra

piesne (609)

  texty (577) / preklady (27)
  akordy (12) / taby (1)
  noty (0) / slideshow (1)

články (35)
fotogaléria
diskusia
videá
diskografia
v obchode
odkazy
koncerty
sťahuj



pridaj vlastný článok

Frank Sinatra:
20 let bez velkého hlasu 20. století. Připomeňte si život a nejslavnější
písně Franka Sinatry
- před 17 hodinami Franka Sinatru roku 1985 vyznamenal americký prezident Ronald Reagan ... - aktualne.cz


Frank Sinatra:
Na sinatrovské oslavy přijede do Lucerny i otec Amy Winehouse - Legendu amerického jazzu Franka Sinatru si příští rok připomeneme díky dvacátému... - denik.cz


Frank Sinatra:
Největší zpěvák a děvkař, přítel mafie a Jacka Danielse? Příběhy
slavných: Frank Sinatra
- Frank Sinatra byl pověstný svým puntičkářským vzhledem. Doma měl na 160 obleků... - rozhlas.cz


Frank Sinatra:
Otcove hity už nezaspieva. Zomrel Frank Sinatra mladší - LOS ANGELS - Americký spevák Frank Sinatra mladší, ktorý vo svojej hudobnej kariére... - atlas.sk


Frank Sinatra:
Ani sto rokov po jeho narodení tu nie je nikto ako on. Frank Sinatra - var pianoVariables = { mode : "init_cookie",... - sme.sk


Frank Sinatra:
Vychádza nová kniha o Frankovi Sinatrovi - Pri príležitosti 100.výročia narodenia Franka Sinatru príde v októbri na trh nová ... - zst


Blackberry Smoke:
Co vychází v únoru: přehled novinek - 09. 02. 2015 | redakce Oproti posledním týdnům je aktuální nabídka nových titu... - ireport.cz


Beyonce Knowles:
Soundtrack k 'Padesáti odstínům šedi' nabídne Siu, Beyoncé, Skylar Grey i
Franka Sinatru
- Soundtrack k "Padesáti odstínům šedi" nabídne Siu, Beyoncé, Skylar Grey i Franka Si... - musicserver.cz


Allman Brothers Band:
Magazín Rolling Stone vydal zoznam najprelomovejších albumov - Americký magazín Rolling Stone zverejnil zoznam 40 najprelomovejších hudobných album...


Aerosmith:
Keď testy DNA netreba: Ktoré hviezdy nemôžu zaprieť svoje otcovstvo? - Keď testy DNA netreba: Ktoré hviezdy nemôžu zaprieť svoje otcovstvo?" width="458" he... - cas.sk


 

Frank Sinatra

Fanúšikov: 6



A B C Č D E F G H CH I J K L Ľ M N O P Q R S Š T U V W X Y Z Ž



ako:
Frank Sinatra - My Way
Frank Sinatra - My Way

tlač

edituj
Poznámka: pripominky na chyby-na jancik.lukas@seznam.cz

Pesničku videlo 199 návštevníkov.

Kvalita tabov : bez hodnotenia
Hodnotilo ľudí: 0 ohodnoť aj ty
Prispievateľ:

Lukáš J.
E ---------0------- -----------0----- ------------0------- -----------------
H ----2--------2--- ------2---------- --2-------------2-0- -2-------5---2---
G ------2----2---2- --------2------- -----2---2----------- --2---2--------4-
D --2-------------- ---2----------2-- -------2------2----- -----2-----2-----
A 0---------------- -0--------------- --0----------------- -----------------
E ----------------- ----------------- -------------------- -4---------------

E --------0------- ----------2------- ----------2-------- --------2--------
H 2---------0-2-0- -0----------2----- -3------------3-2-- 3-----------3-2--
G --0---0--------- -----3--------3--- ---4---4----------- --4---4----------
D ----2----------- -------4--------4- -----4------4------ ----4-----4------
A ---------------- ---4-------------- -2----------------- 0----------------
E 3--------------- -2---------------- ------------------- -----------------

E ------------0----- ---------0------- -------------0--2- -0----------2---0
H 3-------------0-0- -3---2---------4- -0-----2---4------ -------2------2--
G ---1---1---------- -------2-----2--- -----2---2-------- -----0-----------
D -----2------------ ---2-------2----- ---2-------------- ---2-------------
A ------------------ -0--------------- -0-----------4---- -0-------4-------
E 0--------4-------- ----------------- ------------------ -----------------

E ---------2-------- 0-------5----- --------5-9------- ------0-------------
H 3----------3-3----- -----6---6--- ------5----------- 0-----------0-------
G ----2----------6--- ---7-------7- -6------------7-6- ----1---1-2---------
D --4---4------------ -3----------- ---7--------------- -2-----------------
A 5----------------- 5------------- -0----------7----- 0-------------------
E ------------------ -------------- ------------------ --------------------

E --------------2-- ----------0--------------------------------------------
H 0---------0-3---- -----2-------------------------------------------------
G ----2---2-------- 2------2-----------------------------------------------
D --4---4---------- --2----------2-----------------------------------------
A 5---------------- 0------------------------------------------------------
E ----------------- -------------------------------------------------------







 
»
Tvoje obľúbené položky
Tvoje obľúbené položky
»
Najnovšie videá
Najnovšie videá

Frank Sinatra, My Way, With Lyrics

My Way (Remastered 2008)

My Way - Frank Sinatra (Live) 1974, Su

My Way

Frank SInatra Live 1978 My Way

My Way - America's Got Talent - Sal

»
Najnavštevovanejšie piesne
Najnavštevovanejšie piesne
»
Nové albumy interpreta
Nové albumy interpreta
PUZ Frank Sinatra Frank sinatra (1000 piece deluxe jigsaw)
PUZ Frank
sinatra
(1000
piece
deluxe
jigsaw)
VINYL Frank Sinatra I won't dance (silver vinyl + cd) [vinyl]
VINYL I won't
dance
(silver
vinyl +
cd)
[vinyl]
VINYL Sinatra Frank Songs for swingin'.. [vinyl]
VINYL Songs for
swingin'..
[vinyl]
VINYL Sinatra Frank Only the lonely (limited edition transparent blue [vinyl]
VINYL Only the
lonely
(limited
edition
transparen
t blue
[vinyl]
10xCD Sinatra Frank 16 original albums the
10xCD 16
original
albums the
10xCD Frank Sinatra (1915-1998) Sings the songbooks
10xCD Sings the
songbooks



home | interpreti | register piesní | cd & dvd shop | pripomienky/nápady | kontakt | ochrana údajov | inzercia

TOPlist