Para

piesne (96)

  texty (78) / preklady (0)
  akordy (30) / taby (14)
  noty (0) / slideshow (0)

články (236)
fotogaléria
diskusia
videá
diskografia
v obchode
odkazy
koncerty
sťahuj



pridaj vlastný článok

Jana Kirschner:
Brutálna zostava v Smoleniciach: Para a Jana Kirschner ukázali, že sú silný
tandem
- 30.07.2019 - 17:00 | Danka Šoporová To, čo začalo pokojným sedením ľudí na tr... - zoznam.sk


Billy Barman:
19-ty ročník festivalu Žákovic Open aj so špeciálnymi novinkami - 19-ty ročník festivalu Žákovic Open aj so špeciálnymi novinkami | Zdroj: Propagan... - ahudba.sk


Billy Barman:
Para, Billy Barman aj Puding Pani Elvisovej dopĺňajú bohatý line up
festivalu Grape
- Nejde o žiadne veľké prevapenie, teraz však už máš oficiálne prekvapené, že na ... - refresher.sk


Para:
Para brázdi turné naprieč Našou krajinou a zamierila si to aj do
BratislavyWikes
- PridalWikesPridané 5. apríla 2019 Názov skupiny PARA a slovné spojenie NAŠOU KRAJI... - music-zone.eu


Para:
Para symbolicky volila v Gregorovciach. Hodili to tam aj za Jána a Martinu - Večer majú v Prešove koncert. 16. mar 2019 o 19:00 (aktualizované 16. mar 2019 o 2... - korzar.sme.sk


Autumnist:
Albumy roka nahrali Para a Autumnist. Čo to hovorí o slovenskej hudobnej
scéne?
- Oliver RehákOLIVER REHÁK Radio_Head Awards 2018 Album roka Para – Našou krajin... - dennikn.sk


Para:
Para prináša nový klip k piesni Svadobná - Hudba Klipy Para Supina PARA potešila svojich fanúšikov a prichádza s novým vid... - expres.sk


Para:
Para predstavila nový videoklip, chystá aj koncertné turné - Para predstavila nový videoklip, chystá aj koncertné turné "> ... - ahudba.sk


Para:
Para chystá koncertné turné naprieč Našou krajinou - Para chystá koncertné turné naprieč Našou krajinou | Autor: Róbert Jakubička | Z... - ahudba.sk


Para:
Para vydáva album Našou krajinou na vinyle. Takýto dizajn sa len tak nevidí - 08.11.2018 - 15:30 | redakcia Šesť rokov čakali fanúšikovia na nový album stáli... - zoznam.sk


 

Para

Fanúšikov: 27



A B C Č D E F G H CH I J K L Ľ M N O P Q R S Š T U V W X Y Z Ž



ako:
Para - O mne a o Tebe
Para - O mne a o Tebe

tlač

edituj
Rok vzniku: 2007
V originále: O mne a o tebe
Pesničku videlo 141 návštevníkov.

Kvalita tabov : bez hodnotenia
Hodnotilo ľudí: 0 ohodnoť aj ty
Prispievateľ:

Brano
  *** Autor textu: PARA *** Autor hudby: PARA
Ja chcem byť Ty, Ty chceš byť ja
A keď sme spolu, nič sa nám nevyrovná,
Ja chcem byť Ty, Ty chceš byť ja
A keď sme dvaja, nič sa nám nevyrovná




e|-------------------------------------------------------------------------|



B|------2^3^2-------2^3^2-------5------------------------------------------|



G|--2-----------2---------------6----------3-------------------------------|



D|--------------0---------------6----------4-------------------------------|



A|--0---------------------------4----------4-------------------------------|



E|-----------------------------------------2-------------------------------|




Vôbec neviem, čo vlastne chcem,
Neviem viac byť živý, možno s Tebou chcem



G D A

e|--3-----------2----------------------------------------------------------|



B|--3-----------3-----------2-----3----2------0----------------------------|



G|--0-----------2-----------2----------2------2----------------------------|



D|--0-----------0-----------2----------2------2----------------------------|



A|--2-----------------------0----------0------0----------------------------|



E|--3----------------------------------------------------------------------|


A ja Ti poviem láska, nie je to zlé,
A ja Ti poviem, to nie je zlé


e|--0-----------0----------------------------------------------------------|



B|--3-----------3-----------2--------2--------2----------------------------|



G|--2-----------2-----------2--------2--------2----------------------------|



D|--0-----------2-----------2--------2--------2----------------------------|



A|--2-----------2-----------0--------0--------0----------------------------|



E|--------------0----------------------------------------------------------|



Interlude/Outro:



e|---5--------9------------------5--------4---4---4---4-------2--2--2--2---|

^

B|---5------------------------5-----------5---5---5---5-------3--3--3--3---|

^

G|---6---------------------6--------------4---4---4---4-------2--2--2--2---|

^

D|---7------------------7-----------------0---0---0---0-------0--0--0--0---|



A|-------------------------------------------------------------------------|



E|-------------------------------------------------------------------------|
x2

^ = hammer on/pull off



e|----4------4----4-4--------2-----2---2--2--------------------------------|



B|----5------5----5-5--------3-----3---3--3--------------3/4---------------|

3 pull 4
x2 x2
G|----6------6----6-6--------2-----2---2--2--------------------------------|



D|----6------6----6-6--------0-----0---0--0--------------------------------|



A|----4------4----4-4------------------------------------------------------|



E|-------------------------------------------------------------------------|





e|-------------------------------------------------------------------------|



B|---------------2--2-------3-3-3-3--------5-5-5-5-----------3-3-3-3-------|

^ ^ ^

G|---------------2--2-------4-4-4-4--------6-6-6-6-----------4-4-4-4-------|



D|---------------2--2------------------------------------------------------|



A|---------------0--0------------------------------------------------------|



E|-------------------------------------------------------------------------|

 
»
Tvoje obľúbené položky
Tvoje obľúbené položky
»
Najnovšie videá
Najnovšie videá

PARA - O mne a o tebe

Para - O mne a o tebe

Para - O mne a o tebe

O mne a o tebe

RED DAEWO - Je to o mne o tebe [OFFICIAL

O Mne a O Tebe (feat. Bet-Maj Sepja)

»
Najnavštevovanejšie piesne
Najnavštevovanejšie piesne
Svadobná - akordy a text

Linda - akordy

Abstinent - text

Náš svet je pestrý - akordy a text

Keď ťa stretnem - akordy a text

Otec - akordy a text

Doma dobre - akordy

Abstinent - akordy a text

Našou Krajinou - taby

Ako najlepšie viem - text

Ako najlepšie viem - akordy a text

Žena - akordy a text

Otec 2 - text

Zatancuj - text

Celé tie roky - akordy a text

Zatancuj - akordy a text

Linda - taby

Stopár - akordy a text

Kruhy do vody - akordy a text

Ticho - akordy a text

viac

»
Nové albumy interpreta
Nové albumy interpreta
VINYL Para Brutalna zostava [vinyl]
VINYL Brutalna
zostava
[vinyl]
CD Para Nasou krajinou
CD Nasou
krajinou
CD Para Zostava brutalna 1995-2015
CD Zostava
brutalna
1995-2015
CD Para Mensina
CD Mensina
ECD Para Povstanie
ECD Povstanie
CD Para Veci zacnu fungovat
CD Veci zacnu
fungovat



home | interpreti | register piesní | cd & dvd shop | pripomienky/nápady | kontakt | ochrana údajov | inzercia

TOPlist