Reel Big Fish

piesne (155)

  texty (26) / preklady (2)
  akordy (11) / taby (126)
  noty (0) / slideshow (0)

články (2)
fotogaléria
diskusia
videá
diskografia
v obchode
odkazy
koncerty
sťahuj



pridaj vlastný článok

Reel Big Fish:
Nová alba: Reel Big Fish a Jolin Tsai - Úplný konec loňského roku a začátek letošního patří ještě dvěma albům, kter... - novinky.cz


Reel Big Fish:
Reel Big Fish chystají hudební útok na pražský Lucerna Music Bar - musicweb.cz


Reel Big Fish:
Reel Big Fish se již ve středu vrátí do Lucerna Music Baru - muzikus.cz


Reel Big Fish:
Reel Big Fish se v únoru vrací do Prahy - Reel Big Fish se v únoru vrací do Prahy Praha, 5. prosince 2011 – Kalifornská ka...


Reel Big Fish:
Reel Big Fish v obrazech! - musicserver.cz


Reel Big Fish:
Reel Big Fish přijedou oslavit své dvacetiny i do Prahy - musicserver.cz


Reel Big Fish:
Reel Big Fish v únoru v Praze - Reel Big Fish v únoru v Praze Praha, 29. listopadu 2010 - Všichni fanoušci svižn...


Arzte:
Nova Rock - 9. - 12.6. 2005 - Panónske polia, Nickelsdorf (AUT) - musicstyle.sk


 

Reel Big Fish

Fanúšikov: 2



A B C Č D E F G H CH I J K L Ľ M N O P Q R S Š T U V W X Y Z Ž



ako:
Reel Big Fish - Cannibal
Reel Big Fish - Cannibal

tlač

edituj
Rok vzniku: 2007
Pesničku videlo 2122 návštevníkov.

Kvalita tabov : bez hodnotenia
Hodnotilo ľudí: 0 ohodnoť aj ty
Prispievateľ:

Diwa Swina
Autor hudby: Reel Big Fish
Tuning: Standard

Intro (he uses some special super phaser pedal but it sounds alright jsut on clean)
e|-------------------------------------------------| And you play that for
B|--14---------12-12-12--12-12---12-12-12--12-12---| a while just pick
G|--14--x16----12-12-12--12-12---12-12-12--12-12---| the top note on the B
D|--14---------12-12-12--12-12---12-12-12--12-12---| every now and again
A|--12---------10-10-10---9-10---10-10-10---9-10---| and it sounds coool
E|-------------------------------------------------|

Main Riff/Chorus (Distortion)
For this bit its pretty much the clean riff played an octave lower
e|------------------------|
B|------------------------|
G|------------------------| And thats played right through the chorus
D|--7-------4------5------|
A|--7--x16--4--x8--5--x8--|
E|--5-------2------3------|

Verse Pt 1
e|--------------------------------|
B|--------------------------------|
G|--------------------------------|
D|--5-5-4-4-----------------------|
A|----------5-5------5-5-----5-5--|
E|---------------2-2-----3-3------|

Then for part 2 its moved up an octave

Verse Pt 2
e|--------------------------------------------|
B|--------------------------------------------|
G|--12-12-11-11-------------------------------|
D|--------------12-12------12-12-------12-12--|
A|---------------------9-9-------10-10--------|
E|--------------------------------------------|

Then the chorus is just the main riff played over and over again.

Bridge (after lots of feedback and wah-wah pedaling)
e|-----------------------------------------------------------|
B|----------------------------------And on the 3rd time add--|
G|-----------------------------------------------------------|
D|-7-7-7~--10-10-10~--14-14-14~--x2---------19-19-19~--------|
A|-----------------------------------------------------------|
E|-----------------------------------------------------------|

Bridge 2 "You've got a new set of problems, its not your fault this time"
e|------------------|
B|------------------|
G|------------------| x4
D|--7-7---4-4--5-5--|
A|--7-7---4-4--5-5--|
E|--5-5---2-2--3-3--|

Clean Chorus
e|--------------------------|
B|-14-------11------12------|
G|-14--x16--11--x8--12--x8--| Whole thing x2
D|-14-------11------12------|
A|-12--------9------10------|
E|--------------------------|

Then its the normal chorus to the end then the piano comes in but I couldn't work out
solo but could work out the rhythm the guitar plays over the orchestra.

e|-----------------------------|
B|-----------------------------|
G|-----------------------------| The solos played also during the
D|-----------------------------| instrumental end bit but thats sort of
A|--------4-5------------------| running throughout the end.
E|--5~----------2~----0-2--3~--|


| / slide up
| \ slide down
| h hammer-on
| p pull-off
| ~ vibrato
| + harmonic
| x Mute note

 
»
Tvoje obľúbené položky
Tvoje obľúbené položky
»
Najnovšie videá
Najnovšie videá

Cannibal by Reel Big Fish

Cannibal - Reel Big Fish @ HoB Cleveland

Cannibal by Reel Big Fish

Reel Big Fish - Monkeys For Nothin' And

RBF Rarities - Cannibal (Dance Mix)

Reel Big Fish - Cannibal (partial) 19Jul

»
Najnavštevovanejšie piesne
Najnavštevovanejšie piesne
»
Nové albumy interpreta
Nové albumy interpreta
VINYL Reel Big Fish Candy coated fury [vinyl]
VINYL Candy
coated
fury
[vinyl]
DVD Reel Big Fish Live at the house of blue
DVD Live at
the house
of blue



home | interpreti | register piesní | cd & dvd shop | pripomienky/nápady | kontakt | ochrana údajov | inzercia

TOPlist