Sevendust

piesne (184)

  texty (85) / preklady (1)
  akordy (0) / taby (98)
  noty (0) / slideshow (0)

články (5)
fotogaléria
diskusia
videá
diskografia
v obchode
odkazy
koncerty
sťahuj



pridaj vlastný článok

Sevendust:
SEVENDUST Posílají další singl Not original - Posílají mezi nedočkavý lid další singl z chystaného alba "All I See Is War", kter... - metalopolis.net


Sevendust:
SEVENDUST - nové video Dirty a album - I tato americká úderka má nové video. Album s názvem "The Kill Flaw" vychází 11. k... - metalopolis.net


Akercocke:
Týždeň v hard & heavy: Čad získal rádiohlavu za Bastardov - včera o 00:00 | redakcia Desiaty ročník Radio_Head Awards nepriniesol žiadne prekv... - zoznam.sk


Sevendust:
SEVENDUST: Alternative metaloví držáci - spark News, sevendust 07.03.18 15:50 SEVENDUST: Alternative metaloví držáci Nestáv... - spark-rockmagazine.cz


Arch Enemy:
Týždeň v hard & heavy: Abbath v Londýne s corpse-paintom a hot-dogom - pred 4 hodinami | redakcia Olve Eikemo odišiel z Immortal, ktorého názov si chcel n... - zoznam.sk


3 Feet Smaller:
Presný časový rozpis kapiel na Nova Rock 09 zverejnený - musiczone.cz


3 Feet Smaller:
Nova Rock 09: Presný časový rozpis kapiel zverejnený - Bleskovky - Kultura


3 Feet Smaller:
Na festival Nova Rock sú v predaji posledné vstupenky! - NICKELSDORF / PANNONIFIELDS II – Piaty ročník festivalu NOVA ROCK sa vďaka fanúšik...


Sevendust:
Poslechněte si album největších hitů Sevendust - musicserver.cz


Sevendust:
Sevendust se na říjnovém albu vrátí ke kořenům - musicserver.cz


 

Sevendust

Fanúšikov: 1



A B C Č D E F G H CH I J K L Ľ M N O P Q R S Š T U V W X Y Z Ž



ako:
Sevendust - Fee So
Sevendust - Fee So

tlač

edituj
Rok vzniku: 2008
Pesničku videlo 1978 návštevníkov.

Kvalita tabov : bez hodnotenia
Hodnotilo ľudí: 0 ohodnoť aj ty
Prispievateľ:

Diwa Swina
Autor hudby: Sevendust
  f-335553335553635br53535356666353br- 

Riff2-Distortion
b-0-0---0-0---0-0---
f-0-0---0-0---0-0---
B-0-0--x0-0-xx0-0---

Riff3-Distortion
b-3322---3300------------
f-3322---3300--0202320---
B-3322---3300--0202320---
*******
Riff4(gtr1)-Distortion (kick in with wah halfway through)
(/ under the number means trem pick)
b--6-6---6--6-6-----6-6---6--6----------4-4----4444----4-4---------
f--6-6---6--6-6-----6-6---6--6--56~~56-60-066--000056-60-06-/10\---
B-06-60-06--6-600--06-60-06--6-0-----/--0-0-/--0000-/--0-0/---/----
* * * ** * * * *

Riff4(gtr2)-Distortion
b--6-6---6--6-6-----6-6---6--6----------6-6---6--6-6--
f--6-6---6--6-6-----6-6---6--6----------6-6---6--6-6--
B-06-60-06--6-600--06-60-06--6-016/17\-06-60-06--6-600
* * * ** * * * * * * * **
b----6-6---6--6--------
f----6-6---6--6--------
B-0--6-60-06--6-013\---
* * * *
Riff5-Distortion
e-7777----7777----10101010----10101010-----
b-0000----0000-----0-0-0-0-----0-0-0-0-----
f-5555----5555-----8-8-8-8-----8-8-8-8-b---
B-0000----0000-----0-0-0-0-----0-0-0-0-----

Riff6(gtr1)-Distortion
e-11111111--151515--1515\11111111--151515--1515\12121212
b--0-0-0-0---0-0-0---0-0--0-0-0-0---0-0-0---0-0--0-0-0-0
f--9-9-9-9--131313--1313\-9-9-9-9--131313--1313\10101010

e--121212--1212\10101010--10101010101010---
b---0-0-0---0-0--0-0-0-0---0-0-0-0-0-0-0---
f--101010--1010\-8-8-8-----8-8-8-8-8-8-8---

Riff6(gtr2)-Distortion
e-7777------7777------5555------1010101010----7777----------7777--
b-7777------7777------3333-------8-8-8-8-8----7777----------7777--
f-5555------5555------3333-------8-8-8-8-8----5555--5-5--5-55555--
B-0000----000000----003333----00-8-8-8-8-8----0000--0-0--0-00000--
** ** ** * * * *
e---------5555----------1010101010---
b---------3333-----------8-8-8-810---
f-5-5--5-53333--3-3--3-3-8-8-8-8-8---
B-0-0--0-03333--3-3--3-3-8-8-8-8-8---
* * * * * * *
Riff7-Distortion
e-----------------7/88\55/77/8----------------7/88\77/85-
b-0-0---0-0---0-0-x--x--x--x--0-0---0-0---0-0-x--x--x--x-
f-0-0---0-0---0-0-5/66\33/55/60-0---0-0---0-0-5/66\55/63-
B-0-0--x0-0-xx0-0-------------0-0--x0-0-xx0-0------------

e-----------------7/88\55/77/8------------------
b-0-0---0-0---0-0-x--x--x--x--0-0---0-0---0-0---
f-0-0---0-0---0-0-5/66\33/55/60-0---0-0---0-0---
B-0-0--x0-0-xx0-0-------------0-0--x0-0-xx0-0---

Riff8(gtr1)-Distortion (gtr2 does the same except with wah)
b------------------------------76---
f--10^121210^121210^121210^12--56---
B-010^121210^121210^121210^1200-6---
* **
Riff9-Distortion
g---13--13--13--13----------------------------------------------------
e---------------------------------------------------------------------
b-10--10--10--10--12^10--10--12----10----12----13----------13-----12--
f---------------------------------------------------------------------
B----------------------10--12--1210--1012--1210--1012^13^12--10/12----

-------------------------
-------------------------
----13----13----12-------
--------------------10---
1210--1013--1310--10-----

 
»
Tvoje obľúbené položky
Tvoje obľúbené položky
»
Najnovšie videá
Najnovšie videá

sevendust - feel so with lyrics on scre

Sevendust "Feel So" Drum Cover

Sevendust - Licking Cream

Sevendust - Enemy

Sevendust - Home (1999) [Full Album In 1

Sevendust - Waffle

»
Najnavštevovanejšie piesne
Najnavštevovanejšie piesne
Rain - text

Damaged - text

Unraveling - text

Unraveling - preklad

Abuse Me - taby

Alpha - taby

Angels Son - taby

Angels Son Version 2 - taby

Animosity - taby

Beautiful - taby

Beg To Differ - taby

Bender - taby

Better Place - taby

Bitch - taby

Black - taby

Born To Die - taby

Broken Down - taby

Burn - taby

Burned Out - taby

Clueless - taby

viac

»
Nové albumy interpreta
Nové albumy interpreta
CD Sevendust All i see is war
CD All i see
is war
VINYL Sevendust Sevendust -coloured- [vinyl]
VINYL Sevendust
-coloured-
[vinyl]
CD Sevendust Kill the flaw
CD Kill the
flaw
CD Sevendust Time travellers &..
CD Time
travellers
&..
2xCD+DVD Sevendust Southside.. -cd+dvd-
2xCD+DVD Southside.
. -cd+dvd-
CD Sevendust Seasons
CD Seasons



home | interpreti | register piesní | cd & dvd shop | pripomienky/nápady | kontakt | ochrana údajov | inzercia

TOPlist