Van Halen

piesne (224)

  texty (44) / preklady (4)
  akordy (3) / taby (175)
  noty (0) / slideshow (0)

články (38)
fotogaléria
diskusia
videá
diskografia
v obchode
odkazy
koncerty
sťahuj



pridaj vlastný článok

Armin Van Buuren:
Jump: hit Van Halen jako trance remix Armina van Buurena - Holandský producent a DJ Armin van Buuren se rozhodl zabrousit do rockové historie a na... - frontman.cz


Van Halen:
Kdy se vrátí Van Halen na pódia? - Obrázek: Kdy se vrátí Van Halen na pódia? 14. 12. 2018 Otázka kdy a jestli vůbec... - radiobeat.cz


Sammy Hagar:
Sammy Hagar oslávi sedmdesátiny stylově - hodlá oslavit sedmdesátiny patřičně stylově! Pokud máte možnost, sledujte tuto ne... - metalopolis.net


Adele:
Madonna: Najlepšie zarábajúca hudobníčka - Madonna je na prvom mieste medzi najlepšie zarábajúcimi hudobníkmi roku 2012. Presne ... - bang


Van Halen:
Eddie Van Halen podstúpil operáciu hrubého čreva - Spoluzakladateľ americkej rockovej formácie Van Halen Eddie Van Halen musel pre divert...


Van Halen:
Najobľúbenejšou športovou piesňou je Jump od Van Halen - Najobľúbenejšou športovou piesňou ľudí z britského hudobného priemyslu je Jump ...


Van Halen:
Van Halen preložili 31 koncertov, sú za tým zrejme hádky členov - Rocková formácia Van Halen vo štvrtok bez udania dôvodu preložila 31 koncertov v am...


Katarína Knechtová:
Nová alba - Ringo Starr, Katarína Knechtová i Van Halen - novinky.cz


Van Halen:
Téměř zbytečný comeback - musicserver.cz


Van Halen:
Van Halen: 28 let čekání je u konce, poslechněte si nové album - ireport.cz


 

Van Halen

Fanúšikov: 9



A B C Č D E F G H CH I J K L Ľ M N O P Q R S Š T U V W X Y Z Ž



ako:
Van Halen - Jamies Cryin
Van Halen - Jamies Cryin

tlač

edituj
Rok vzniku: 1982
Pesničku videlo 2432 návštevníkov.

Kvalita tabov : bez hodnotenia
Hodnotilo ľudí: 0 ohodnoť aj ty
Prispievateľ:

Diwa Swina
Autor hudby: Van Halen
all tuned - Eb Ab Db Gb Bb Eb
Gtr I - 'Eddie Van Halen - rhythm - brown sound'
Gtr II, III - 'Eddie Van Halen - lead- brown sound'

Intro
Q=126
4/4
Gtrs II, III
~~~~~~~~~~~~~~~
a a a +H +E +Q. +Q Q a +Q Q
|------------------------------------|---------------------------------|
|-----14b15==(15)------(15)-(15)-----|-(15)r------14b17-(17)-----------|
|---x--------------------------------|---------------------------------|
|-x----------------------------------|---------------------------------|
|------------------------------------|---------------------------------|
|------------------------------------|---------------------------------|
|
| Gtr I
| ~~~~~~~~~~~~~
| q E E q E E q E E +E E E E
|------------------------------------|---------------------------------|
|------------------------------------|---------------------------------|
|------------------------------------|---------------------------------|
|------------------------------------|---------------------------------|
|------------------------------------|---------------------------------|
|--------------0-----0---0---------0-|---0------7--------(7)-6-5-3b3.5p|


~~~
a +q H. +Q Q H
|--------------------------|----------------------------|
|-12b14-(14)--10-----------|-(10)\----------------------|
|--------------------------|----------------------------|
|--------------------------|----------------------------|
|--------------------------|----------------------------|
|--------------------------|----------------------------|
|
| ~~~~~~
| q E E q E E q E E +E E E E
|--------------------------|----------------------------|
|--------------------------|----------------------------|
|--------------------------|----------------------------|
|--------------------------|----------------------------|
|--------------------------|----------------------------|
|---------0-------0-0----0-|---0------7-(7)-6-5-3b3.5p==|


~~~
a +H +H H Q a +q
|----------------------------|--------------------------------|
|-14b15==(15)r=====(14)p=====|=12-----10---10b12-(12)---------|
|----------------------------|--------------------------------|
|----------------------------|--------------------------------|
|----------------------------|--------------------------------|
|----------------------------|--------------------------------|
|
| PM
| q e E q Q +H E E E a +E
|--------------7-------------|--------------------------------|
|--------------7---------^0--|-(0)----------------------------|
|--------------7---------^4--|-(4)----------------------------|
|------------------------^0--|-(0)----------------------------|
|------------------------^5--|-(5)----------------------------|
|----------0-----0---0-------|---------7-6---------5--3b4-(4)p|


\3.5
q Q +H +Q +Q +Q Q
|--------------------|-----------------------------||
|-10--9---(9)--------|-(9)--(9)--(9)---------------||
|--------------------|-----------------------------||
|--------------------|-----------------------------||
|--------------------|-----------------------------||
|--------------------|-----------------------------||
|
| PM
| q e E q Q +H E E E a +E
|-----7--------------|-----------------------------||
|-----7----------^0--|-(0)-------------------------||
|-----7----------^4--|-(4)-------------------------||
|----------------^0--|-(0)-------------------------||
|----------------^5--|-(5)-------------------------||
|--0----0--0---------|------------7--6-5-3b4-(4)p==||


Verse 1
Gtr I
PM PM
q e E E E Q +Q E E Q Q q e E E E Q +Q E E Q Q
|----7----------|----------!0--0--|----7----------|----------!0--0---|
|----7---x-x-7--|-(7)--x-x-!3-----|----7---x-x----|------x-x-!3------|
|----7---x-x-7--|-(7)--x-x-!2-----|----7---x-x-7--|-(7)--x-x-!2------|
|--------x-x-7--|-(7)--x-x-!0-----|--------x-x-7--|-(7)--x-x-!0------|
|---------------|-----------------|---------------|------------------|
|-0----0--------|-----------------|-0----0--------|------------------|


PM PM
q e E E E Q +Q E E Q Q q e E Q Q
|----7----------|----------!0--0--|----7----------|
|----7---x-x-7--|-(7)--x-x-!3-----|----7------!0--|
|----7---x-x-7--|-(7)--x-x-!2-----|----7------!4--|
|--------x-x-7--|-(7)--x-x-!0-----|-----------!0--|
|---------------|-----------------|-----------!5--|
|-0----0--------|-----------------|-0----0-0------|


+H E E E E E E E E E E Q +Q Q E E E E
|----------------|----------------|-----------------||
|-(0)------------|----------------|-----------------||
|-(4)------------|----------------|-----------------||
|-(0)------------|---------0-4-2--|-(2)-----2-2-2---||
|-(5)------------|---0-4-2-----0--|-(0)-----0-0-0-2-||
|--------7-6-5-3-|-2--------------|-----------------||


Chorus 1 & 2
$
PM|
q e e e E +Q +H E E E a +E
|----7-------------|----------------------|
|----7-----^0-(0)--|-(0)------------------|
|----7-----^4-(4)--|-(4)------------------|
|----------^0-(0)--|-(0)------------------|
|----------^5-(5)--|-(5)------------------|
|-0----0-0---------|--------7-6-5-3b4-(4)p|


PM PM ~
q e E a +q Q Q Q E E E E
|----7---------------|----------------------|
|----7---------------|----------------------|
|----7---------------|----------------------|
|--------------------|----------------------|
|--------7b9-(9)--5--|-5s=12\---------------|
|-0----0-------------|---------7-6-5-3b3.5--|


PM|
q e e e E +Q +H E E E a +E
|----7-------------|----------------------|
|----7-----^0-(0)--|-(0)------------------|
|----7-----^4-(4)--|-(4)------------------|
|----------^0-(0)--|-(0)------------------|
|----------^5-(5)--|-(5)------------------|
|-0----0-0---------|--------7-6-5-3b4-(4)p|


To Coda
PM PM ~~~~~~~~~
q e E a +q Q +H E E E a +E
|----7---------------|----------------------||
|----7---------------|----------------------||
|----7---------------|----------------------||
|--------------------|----------------------||
|--------7b9-(9)--5--|-(5)------------------||
|-0----0-------------|--------7-6-5-3b4-(4)-||


Verse 2
PM PM
q e E E E Q +Q E E Q Q q e E E E Q +Q E E Q Q
|----7----------|----------!0--0--|----7----------|----------!0--0---|
|----7---x-x-7--|-(7)--x-x-!3-----|----7---x-x----|------x-x-!3------|
|----7---x-x-7--|-(7)--x-x-!2-----|----7---x-x-7--|-(7)--x-x-!2------|
|--------x-x-7--|-(7)--x-x-!0-----|--------x-x-7--|-(7)--x-x-!0------|
|---------------|-----------------|---------------|------------------|
|-0----0--------|-----------------|-0----0--------|------------------|


PM PM PM
q e E E E Q +Q E E Q Q q e E E E Q +Q E E Q E E
|----7----------|----------0--0--|----7----------|----------0--0----||
|----7---x-x-7--|-(7)--x-x-3--3--|----7---x-x----|------x-x-3--3----||
|----7---x-x-7--|-(7)--x-x-2-----|----7---x-x-7--|-(7)--x-x-2-------||
|--------x-x-7--|-(7)--x-x-0-----|--------x-x-7--|-(7)--x-x-0-------||
|---------------|----------------|---------------|---------------0--||
|-0----0--------|----------------|-0----0--------|------------------||


Pre-Chorus
$$
PM PM
Q E E +E E Q Q E E +Q E E Q E E +E E Q Q E E +E E E E
|------------0----|-------------0---|------------0----|------------0---0--|
|-2----3-(3)------|-0----2-(2)----2-|-2----3-(3)------|-0----2-(2)---2----|
|-2----4-(4)---4--|-0----2-(2)------|-2----4-(4)---4--|-0----2-(2)--------|
|-2----2-(2)------|-2----2-(2)------|-2----2-(2)------|-2----2-(2)--------|
|-0--0------------|-0--0------------|-0--0------------|-0--0--------------|
|-----------------|-----------------|-----------------|-------------------|


D.S. al Coda
to Double Coda
Q E E +Q E E Q E E +E E E E Q E E +Q Q E E E E +Q Q
|-------------0---|------------------|----------------|-------0-(0)--------||
|-5----7-(7)----0-|-3----5-(5)-5-----|-5----7-(7)--0--|-3-3---5-(5)--------||
|-6----7-(7)------|-4----6-(6)---7p6-|-6----7-(7)-----|-4-4---6-(6)--------||
|-7----7-(7)------|-5----7-(7)---7---|-7----7-(7)-----|-5-5---7-(7)--------||
|-0--0------------|----0-------------|-0--0-----------|-----0--------------||
|-----------------|------------------|----------------|--------------10\---||


Bridge
&
H. E E Q. E +E E Q E E E E +E E Q E E E E E E E E
|-------------|------0-(0)-0----|-------------------|-------2---0---2--|
|-5-------4h5-|-7----7-(7)-7----|-------5-(5)-4-----|-------2---0---2--|
|-6-----------|-7------------7--|-----6---------6\--|------------------|
|-6-----------|-7---------------|---6---------------|-----4------------|
|-4-----------|-5---------------|-4-----------------|---4--------------|
|-------------|-----------------|-------------------|-2----------------|


~~
E E E E +E E E E Q. E +Q E E W +Q S S E Q S E.
|---------------------|-----------------|----------|-----------------------||
|---------5-(5)-4-----|------7-(7)--7-7-|----------|------10p9-------------||
|-------6---------6---|------7-(7)--7-7-|----------|-----------9-9---------||
|-----6-------------6-|------7-(7)--7-7-|-9--------|-(9)---------9s=16-----||
|-(4)-----------------|-5-----------5-5-|-7--------|-(7)-------------------||
|---------------------|-----------------|-0--------|-(0)---------------16\-||


Guitar Break
~ PM|
Q E E a +Q Q +Q E E E E E E
|--------------------|-----------0-0-----|
|--------------------|-----------0-0-----|
|--------------------|-------------------|
|--------------------|-------------------|
|----7---7b9-(9)--5--|-(5)\--------------|
|-0----0-------------|-------3-4-----3-4-|


~~~~~~~~~~ PM|
Q E E a +Q Q +Q E E E E E E
|--------------------|-----------0-0------|
|--------------------|-----------0-0------|
|--------------------|--------------------|
|--------------------|--------------------|
|----7---7b9-(9)--5--|-(5)\---------------|
|-0----0-------------|-------3-4-----3-4--|


~~~
Q e E a +q Q +Q Q E E E +E
|----------------------|---------------------------|
|----9---9b10-(10)--7--|-(7)-----------------------|
|----9---9b11-(11)--7--|-(7)-----------------------|
|----------------------|---------------------------|
|----------------------|------------5-6-7b10==(10)-|
|-0----0---------------|------/17\-----------------|


D.S.S. al Dbl. Coda
~~~
+Q e E a +q Q +H E E E E
|---------------------------|-----------------||
|---------9---9b10-(10)--7--|-(7)-------------||
|---------9---9b11-(11)--7--|-(7)-------------||
|---------------------------|-----------------||
|-(10)r\--------------------|-----------------||
|-----------0---------------|--------7-6-5-4--||


Chorus 3
&&
PM| PM|
q e e q Q +H E E E a +E q e e q Q
|----7----------|----------------------|----7----------|
|----7------^0--|-(0)------------------|----7------^0--|
|----7------^4--|-(4)------------------|----7------^4--|
|-----------^0--|-(0)------------------|-----------^0--|
|-----------^5--|-(5)------------------|-----------^5--|
|-0----0-0------|--------7-6-5-3b4-(4)p|=0----0-0------|


+H E E E E E E E E E E Q +Q Q E E E E
|----------------|----------------|-----------------||
|-(0)------------|----------------|-----------------||
|-(4)------------|----------------|-----------------||
|-(0)------------|---------0-4-2--|-(2)-----2-2-2---||
|-(5)------------|---0-4-2-----0--|-(0)-----0-0-0-2-||
|--------7-6-5-3-|-2--------------|-----------------||

[ Tab from: http://www.guitaretab.com/v/van-halen/45231.html ]
Out-Chorus
Gtrs II, III
~~~~ ~~~~ ~~~~
a H a H a Q Q a +Q q
|--------12--------------12-------|--------12-------------------12---------|
|-15b17-(17)------15b17-(17)------|-15b17-(17)-----12b14-(14)--------------|
|---------------------------------|----------------------------------------|
|---------------------------------|----------------------------------------|
|---------------------------------|----------------------------------------|
|---------------------------------|----------------------------------------|
|
| Gtr I
| PM------|
| q e e q Q +H E E E a +E
|-------------7-------------------|----------------------------------------|
|-------------7---------------^0--|--------(0)-----------------------------|
|-------------7---------------^4--|--------(4)-----------------------------|
|-----------------------------^0--|--------(0)-----------------------------|
|-----------------------------^5--|--------(5)-----------------------------|
|---------0-----0---------0-------|------------------------7--6--5-3b4-(4)p|


~~~~~~~~~~~~~~~~~~~~~~~~~
a +Q H. +H H a +H +H
|--------------------------------|-------------------------|-----------------------------|
|-12b14-(14)--12-----------------|-(12)--------------------|-12b14==(14)r=====(12)-------|
|--------------------------------|-------------------------|-----------------------------|
|--------------------------------|-------------------------|-----------------------------|
|--------------------------------|-------------------------|-----------------------------|
|--------------------------------|-------------------------|-----------------------------|
|
| ~~~~~~~~~~ PM|
| Q e E a +q Q +Q. +E E E E E q e e q Q
|--------------------------------|-------------------------|--------------7--------------|
|--------------9----9b10-(9)--7--|--(7)---(7)/-------------|--------------7---------^0---|
|--------------9----9b11-(9)--7--|--(7)---(7)/-------------|--------------7---------^4---|
|--------------------------------|-------------------------|------------------------^0---|
|--------------------------------|-------------------------|------------------------^5---|
|---------0-------0--------------|-------------7-6-5-3b3.5-|----------0-----0---0--------|


\7
~~~
H Q a +Q Q Q +H +H. Q
|--------------------------------|----------------------|------------------------|
|-10-----10---10b12-(12)---------|-10s=9--------(9)-----|-(9)--------------------|
|--------------------------------|----------------------|------------------------|
|--------------------------------|----------------------|------------------------|
|--------------------------------|----------------------|------------------------|
|--------------------------------|----------------------|------------------------|
|
| ~~~~~~~~~
| +H E E E a +E Q e E a +q Q +Q. +E E E E E
|--------------------------------|----------------------|------------------------|
|-(0)----------------------------|-----9---9b10-(10)-7--|-(7)---(7)/-------------|
|-(4)----------------------------|-----9---9b11-(11)-7--|-(7)---(7)/-------------|
|-(0)----------------------------|----------------------|------------------------|
|-(5)----------------------------|----------------------|------------------------|
|---------7-6---------5--3b4-(4)-|--0----0--------------|------------7-6-5-3b3.5-|


~~~~~~~~~~~~~~~~~~~~~~~~~
a H +H +Q Q a +Q q
|--------12-------(12)------|-(12)------------------12-------------|
|-15b17-(17)------(17)------|-(17)-----12b14-(14)------------------|
|---------------------------|--------------------------------------|
|---------------------------|--------------------------------------|
|---------------------------|--------------------------------------|
|---------------------------|--------------------------------------|
|
| PM|
| q e e q Q +H E E E a +E
|-------------7-------------|--------------------------------------|
|-------------7---------^0--|--(0)---------------------------------|
|-------------7---------^4--|--(4)---------------------------------|
|-----------------------^0--|--(0)---------------------------------|
|-----------------------^5--|--(5)---------------------------------|
|---------0-----0---0-------|------------------7--6--5-3b4-(4)p====|


~~~~~~~~~~~~~~~~~~~~~~~~~
a +q H. +H. Q
|--------------------------------|-------------------------|
|-12b14-(14)--12-----------------|-(12)--------------------|
|--------------------------------|-------------------------|
|--------------------------------|-------------------------|
|--------------------------------|-------------------------|
|--------------------------------|-------------------------|
|
| ~~~~~~~~~~
| Q e E a +q Q +Q Q E E E E
|--------------------------------|-------------------------|
|--------------9----9b10-(10)-7--|--(7)--------------------|
|--------------9----9b11-(11)-7--|--(7)--------------------|
|--------------------------------|-------------------------|
|--------------------------------|-------------------------|
|---------0-------0--------------|-------/16\--7-6-5-3b3.5-|


\1
~~
a +H +H H Q a +Q Q Q +H
|----------------------------|-------------------------------|------------------------|
|-12b14==(14)r=====(12)------|-10----10---10b12-(12)---------|-10s=9--------(9)-------|
|-12b13==(13)r=====(12)------|-11----11---11b13-(13)---------|-11s=9--------(9)-------|
|----------------------------|-------------------------------|------------------------|
|----------------------------|-------------------------------|------------------------|
|----------------------------|-------------------------------|------------------------|
|
| PM| ~
| q e e q Q H E E E a +E Q e E a +q Q
|--------------7-------------|-------------------------------|------------------------|
|--------------7---------^0--|--0----------------------------|-----9---9b10-(10)-7----|
|--------------7---------^4--|--4----------------------------|-----9---9b11-(11)-7----|
|------------------------^0--|--0----------------------------|------------------------|
|------------------------^5--|--5----------------------------|------------------------|
|----------0-----0---0-------|--------7-6---------5--3b4-(4)p|==0----0----------------|


Outro - Solo
~~~~~~~~~~~~~~~~
+H. Q a +H +H +Q Q a +H
|------------------------||----------------------------|----------------------------------|
|-(9)--------------------||-14b15==(15)------(15)------|-(15)r-----14b17-(17)-------------|
|-(9)--------------------||----------------------------|----------------------------------|
|------------------------||----------------------------|----------------------------------|
|------------------------||----------------------------|----------------------------------|
|------------------------||----------------------------|----------------------------------|
|
| ~~~ PM|
| Q Q E E E E q e e q Q +H E E E a +E
|------------------------||--------------7-------------|----------------------------------|
|--7---------------------||--------------7---------^0--|--(0)-----------------------------|
|--7---------------------||--------------7---------^4--|--(4)-----------------------------|
|------------------------||------------------------^0--|--(0)-----------------------------|
|------------------------||------------------------^5--|--(5)-----------------------------|
|------/16\--7-6-5-3b3.5-||----------0-----0---0-------|-------------------7--6-5-3b4-(4)p|


~~~~~~~~~~~~~~~~~~~
a +Q H. +H. +q
|--------------------------|-----------------------------|
|-12b14-(14)--12-----------|-(12)-----------------(12)\--|
|--------------------------|-----------------------------|
|--------------------------|-----------------------------|
|--------------------------|-----------------------------|
|--------------------------|-----------------------------|
|
| PM| ~~~~~~~~~
| q e e q Q +Q a +E E Q Q
|--------------7-----------|-----------------------------|
|--------------7-------^0--|--(0)----------(0)-----------|
|--------------7-------^4--|--(4)------------------------|
|----------------------^0--|--(0)------------------------|
|----------------------^5--|--(5)--7b9-(9)-----5----7----|
|---------0-------0-0------|-----------------------------|


\1________
~~~~~~~~~~~~~~
a +H +H H Q a +Q q Q +H
|----------------------------|--------------------------------|-------------------|
|-14b15==(15)r=====(14)------|-12-----10---10b12-(12)---------|-10--9---(9)-------|
|----------------------------|--------------------------------|-------------------|
|----------------------------|--------------------------------|-------------------|
|----------------------------|--------------------------------|-------------------|
|----------------------------|--------------------------------|-------------------|
|
| PM| PM|
| q e e q Q +H E E E a +E q e e q Q
|--------------7-------------|--------------------------------|-----7-------------|
|--------------7---------^0--|-(0)----------------------------|-----7---------^0--|
|--------------7---------^4--|-(4)----------------------------|-----7---------^4--|
|------------------------^0--|-(0)----------------------------|---------------^0--|
|------------------------^5--|-(5)----------------------------|---------------^5--|
|----------0-----0---0-------|---------7-6---------5--3b4-(4)p|==0----0--0--------|


/ |
~~~~
+H +S +S E Q a a a +H +H
|-------------------------------|---------------------------------|
|-(9)--------------(9)-(9)------|-----14b15==(15)------(15)-------|
|-------------------------------|---x-----------------------------|
|-------------------------------|-x-------------------------------|
|-------------------------------|---------------------------------|
|-------------------------------|---------------------------------|
|
| ~~~~~~~~~~~ PM|
| +Q a +E E Q Q q e e q Q
|-------------------------------|------------------7--------------|
|-(0)----------(0)--------------|------------------7---------^0---|
|-(4)---------------------------|------------------7---------^4---|
|-(0)---------------------------|----------------------------^0---|
|-(5)--7b9-(9)------5--------7--|----------------------------^5---|
|-------------------------------|--------------0-----0---0--------|


~~~~ ~~~~~~~~~~~~~~~~~~~~~~~~~
+Q Q a +H a +Q H. +H. Q
|---------------------------------|--------------------------------|-------------------------|
|-(14)-----14b17-(17)-------------|-12b14-(14)--12-----------------|-(12)--------------------|
|---------------------------------|--------------------------------|-------------------------|
|---------------------------------|--------------------------------|-------------------------|
|---------------------------------|--------------------------------|-------------------------|
|---------------------------------|--------------------------------|-------------------------|
|
| ~~~~~~~~~~
| +H E E E a +E Q e E a +q Q +Q Q E E E E
|---------------------------------|--------------------------------|-------------------------|
|--(0)----------------------------|--------------9----9b10-(10)-7--|--(7)--------------------|
|--(4)----------------------------|--------------9----9b11-(11)-7--|--(7)--------------------|
|--(0)----------------------------|--------------------------------|-------------------------|
|--(5)----------------------------|--------------------------------|-------------------------|
|------------------7--6-5-3b4-(4)-|---------0-------0--------------|-------/16\--7-6-5-3b3.5-|


~~~
a +H +H Q. +E Q a +Q
|----------------------------|-------------------------------------*|
|-14b15==(15)r=====(14)------|-12----(12)\-10---10b12-(12)---------*|
|----------------------------|-------------------------------------*|
|----------------------------|-------------------------------------*|
|----------------------------|-------------------------------------*|
|----------------------------|-------------------------------------*|
|
| PM|
| q e e q Q +H E E E a E
|--------------7-------------|-------------------------------------*|
|--------------7---------^0--|-(0)---------------------------------*|
|--------------7---------^4--|-(4)---------------------------------*|
|------------------------^0--|-(0)---------------------------------*|
|------------------------^5--|-(5)---------------------------------*|
|----------0-----0---0-------|--------------7-6---------5--3b4-3---*|

 
»
Tvoje obľúbené položky
Tvoje obľúbené položky
»
Najnovšie videá
Najnovšie videá

Van Halen - "Jamie's Cryin'" (Official M

Van Halen - Van Halen - Jamie's Cryin'

Van Halen - Jamies Cryin ( LIVE Largo 19

Van Halen-Jamie's Cryin'

Van Halen - Jamie's Cryin' (1978) (Remas

Van Halen - Jamie's Cryin' Guitar Lesson

»
Najnavštevovanejšie piesne
Najnavštevovanejšie piesne
»
Nové albumy interpreta
Nové albumy interpreta
2xVINYL Van Halen Hurricane - maryland broadcast 1982 1.0 [vinyl]
2xVINYL Hurricane
- maryland
broadcast
1982 1.0
[vinyl]
2xVINYL Van Halen Hurricane - maryland broadcast 1982 1.0 [vinyl]
2xVINYL Hurricane
- maryland
broadcast
1982 1.0
[vinyl]
3xCD Van Halen Transmission impossible (3cd)
3xCD Transmissi
on
impossible
(3cd)
2xVINYL Van Halen Hurricane - maryland broadcast 1982 2. 0 [vinyl]
2xVINYL Hurricane
- maryland
broadcast
1982 2. 0
[vinyl]
2xVINYL Van Halen Hurricane - maryland broadcast 1982 2. 0 [vinyl]
2xVINYL Hurricane
- maryland
broadcast
1982 2. 0
[vinyl]
2xVINYL Van Halen Caracas, venezuela 1983 [vinyl]
2xVINYL Caracas,
venezuela
1983
[vinyl]



home | interpreti | register piesní | cd & dvd shop | pripomienky/nápady | kontakt | ochrana údajov | inzercia

TOPlist