Van Halen

piesne (224)

  texty (44) / preklady (4)
  akordy (3) / taby (175)
  noty (0) / slideshow (0)

články (38)
fotogaléria
diskusia
videá
diskografia
v obchode
odkazy
koncerty
sťahuj



pridaj vlastný článok

Armin Van Buuren:
Jump: hit Van Halen jako trance remix Armina van Buurena - Holandský producent a DJ Armin van Buuren se rozhodl zabrousit do rockové historie a na... - frontman.cz


Van Halen:
Kdy se vrátí Van Halen na pódia? - Obrázek: Kdy se vrátí Van Halen na pódia? 14. 12. 2018 Otázka kdy a jestli vůbec... - radiobeat.cz


Sammy Hagar:
Sammy Hagar oslávi sedmdesátiny stylově - hodlá oslavit sedmdesátiny patřičně stylově! Pokud máte možnost, sledujte tuto ne... - metalopolis.net


Adele:
Madonna: Najlepšie zarábajúca hudobníčka - Madonna je na prvom mieste medzi najlepšie zarábajúcimi hudobníkmi roku 2012. Presne ... - bang


Van Halen:
Eddie Van Halen podstúpil operáciu hrubého čreva - Spoluzakladateľ americkej rockovej formácie Van Halen Eddie Van Halen musel pre divert...


Van Halen:
Najobľúbenejšou športovou piesňou je Jump od Van Halen - Najobľúbenejšou športovou piesňou ľudí z britského hudobného priemyslu je Jump ...


Van Halen:
Van Halen preložili 31 koncertov, sú za tým zrejme hádky členov - Rocková formácia Van Halen vo štvrtok bez udania dôvodu preložila 31 koncertov v am...


Katarína Knechtová:
Nová alba - Ringo Starr, Katarína Knechtová i Van Halen - novinky.cz


Van Halen:
Téměř zbytečný comeback - musicserver.cz


Van Halen:
Van Halen: 28 let čekání je u konce, poslechněte si nové album - ireport.cz


 

Van Halen

Fanúšikov: 9



A B C Č D E F G H CH I J K L Ľ M N O P Q R S Š T U V W X Y Z Ž



ako:
Van Halen - Van Halen
Van Halen - Van Halen

tlač

edituj
Rok vzniku: 1988
Pesničku videlo 2582 návštevníkov.

Kvalita tabov : bez hodnotenia
Hodnotilo ľudí: 0 ohodnoť aj ty
Prispievateľ:

Diwa Swina
Autor hudby: Van Halen
Tuned down 1/2 step: Eb,Ab,Db,Gb,Bb,eb

Legend:
x-dead string
*-artificial harmonic
+-natural harmonic
PM. -light palm mute
PM_ -palm mute
~-vibrato
|o--o|
|o--o|-repeat
/-slide up
\-slide down
h-hammer on
p-pull off
B-full bend
b-half bend

Intro
Lots of distortion
(0:18) x3
||--x----------| ---------------------------------------- |
||---x---------|o----------5-7------xx---7h8---10---9----o|
||----x--------| ----------5-7------xx---7------9---9---- |
||-----x-------| ----------5-7------xx---7h9---11---9---- |
||------x------|o-------------------xx-------------------o|
||-------x-----| ---/17\\\----------xx------------------- |
^strum strings behind nut

(0:34)
|----------------------------------------|
|----------5-7-----xx---7h8---10---9\\---|
|----------5-7-----xx---7------9---9\\---|
|----------5-7-----xx---7h9---11---9\\---|
|------------------xx--------------------|
|---/17\\\---------xx--------------------|

1st verse
Lowered Distortion and volume
(0:40)
|---------------------------------|
|---------------------------------|
|--2-----------4------2------0----|
|--2-----------5------4------2----|
|--0-----0--0------0------0-------|
|-----3---------------------------|
PM . . . . .
"I live my life like there's no tomorrow"

(0:45)
|---------------------------------------12+-----7+----|
|-----------------------------------12+------7+-------|
|--2-----------4------2------0---------------------5+-|
|--2-----------5------4------2/5----------------------|
|--0-----0--0------0------0---------------------------|
|-----3-----------------------------------------------|
PM . . . . .
"and all I've got I had to steal


(0:50)
|---------------------------------|
|---------------------------------|
|--2-----------4------2------0----|
|--2-----2-----5------4------2----|
|--0-----0--0------0------0-------|
|-----3---------------------------|
PM . . . . .
"Least I don't need to beg or borrow"


(0:55)
|-------------------------------------0---|
|-------------------------------------0---|
|--2-----------4------2------0--------0---|
|--2-----2-----5------4------2----0---2\\-|
|--0-----0--0-------------------------2\\-|
|-----3-------------------------------0---|
PM . . . .
"Yes I'm livin' at a pace that kills"


Chorus
(0:59) x4
| ------------------------------ |
|o-5-7---xx---7h8---10---9\\\---o|
| -5-7---xx---7------9---9\\\--- |
| -5-7---xx---7h9---11---9\\\--- |
|o-------xx---------------------o|
| -------xx--------------------- |
"Runnin' with the devil"


Verse 2
(1:20)
|---------------------------------|
|---------------------------------|
|--2-----------4------2------0----|
|--2-----2-----5------4------2----|
|--0-----0--0------0------0-------|
|-----3---------------------------|
PM . . . . .
"I found the simple life ain't so simple"

(1:25) tr~~~~~~~~
|--------------------------------------|
|---------------------------7p0h7------|
|--2-----------4------2-----7p0h7-etc.-|
|--2-----2-----5------4----------------|
|--0-----0--0------0-----5/------------|
|-----3--------------------------------|
PM . . . .
"When I jumped out on that road"

(1:29)
|---------------------------------|
|---------------------------------|
|--2-----------4------2------0----|
|--2-----2-----5------4------2----|
|--0-----0--0------0------0-------|
|-----3---------------------------|
PM . . . . .
"I've got no love, no love you'd call real"

(1:35)
|-------------------------------------0---|
|-------------------------------------0---|
|--2-----------4------2------0--------0---|
|--2-----2-----5------4------2----0---2\\-|
|--0-----0--0-------------------------2\\-|
|-----3-------------------------------0---|
PM . . . .
"Ain't got nobody waitin' at home"


Chorus
(1:40) X3
| ------------------------------ |
|o-5-7---xx---7h8---10---9\\\---o|
| -5-7---xx---7------9---9\\\--- |
| -5-7---xx---7h9---11---9\\\--- |
|o-------xx---------------------o|
| -------xx--------------------- |
"Runnin' with the devil"

(1:54)
|--------------------------------|
|-5-7---xx---7h8---10------------|
|-5-7---xx---7------9------------|
|-5-7---xx---7h9---11------------|
|-------xx-----------------------|
|-------xx--------------/17\\\\--|
"Runnin' with the devil"


Solo 1
(1:59)
|---------------------------------------------------------------------------------------|
|---------14-15-17-15-15p14-------14------------------12-13-15-(13)-13p12-------12------|
|------14-------------------14-------14-------------12--------------------12-------12---|
|-7/14-------------------------14-------14--14\5/12--------------------------12-------12|
|---------------------------------------------------------------------------------------|
|---------------------------------------------------------------------------------------|

______
Solo 1 cont. while bent / \
|------------------------------17B-17-17-17~~~~~-------------------14---15---15br15\\\\-|
|------------14-15-17-15-15p14-------------------12--12/13-15p13---15---16---15Br15\\\\-|
|---------14----------------------------------------------------------------------------|
|-12\7/14-------------------------------------------------------------------------------|
|---------------------------------------------------------------------------------------|
|---------------------------------------------------------------------------------------|


Chorus
(2:10) x2
|----------------------------------------|
|----------5-7-----xx---7h8---10---9-----|
|----------5-7-----xx---7------9---9-----|
|----------5-7-----xx---7h9---11---9-----|
|------------------xx--------------------|
|---/17\\\---------xx--------------------|



 
»
Tvoje obľúbené položky
Tvoje obľúbené položky
»
Najnovšie videá
Najnovšie videá

Van Halen 1984 FULL ALBUM

Van Halen - Panama

Van Halen - Best Of Volume 1 (Japanese V

Eruption Guitar Solo--Eddie Van Halen

Van Halen - Van Halen - Little Dreamer

Van Halen - "Runnin' With The Devil" (Of

»
Najnavštevovanejšie piesne
Najnavštevovanejšie piesne
»
Nové albumy interpreta
Nové albumy interpreta
2xVINYL Van Halen Hurricane - maryland broadcast 1982 1.0 [vinyl]
2xVINYL Hurricane
- maryland
broadcast
1982 1.0
[vinyl]
2xVINYL Van Halen Hurricane - maryland broadcast 1982 1.0 [vinyl]
2xVINYL Hurricane
- maryland
broadcast
1982 1.0
[vinyl]
3xCD Van Halen Transmission impossible (3cd)
3xCD Transmissi
on
impossible
(3cd)
2xVINYL Van Halen Hurricane - maryland broadcast 1982 2. 0 [vinyl]
2xVINYL Hurricane
- maryland
broadcast
1982 2. 0
[vinyl]
2xVINYL Van Halen Hurricane - maryland broadcast 1982 2. 0 [vinyl]
2xVINYL Hurricane
- maryland
broadcast
1982 2. 0
[vinyl]
2xVINYL Van Halen Caracas, venezuela 1983 [vinyl]
2xVINYL Caracas,
venezuela
1983
[vinyl]



home | interpreti | register piesní | cd & dvd shop | pripomienky/nápady | kontakt | ochrana údajov | inzercia

TOPlist