Who

piesne (462)

  texty (231) / preklady (7)
  akordy (132) / taby (195)
  noty (0) / slideshow (0)

články (68)
fotogaléria
diskusia
videá
diskografia
v obchode
odkazy
koncerty
sťahuj



pridaj vlastný článok

Townshend Pete:
Pete Townshend z kapely The Who prekvapil Napísal rockový román - TASR 06.03.2019 00:00 Pete Townshend Pete Townshend z kapely The Who. Autor: TASR/AP... - pravda.sk


Who:
The Who by v tomto roce rádi vydali novou desku - Vydáno: 13.01.2019 19:14 v sekci Novinky - Milan Menčík Letos kroutí už pětapades... - musicserver.cz


Roger Daltrey:
Roger Daltrey vydá letos nové album - Obrázek: Roger Daltrey vydá letos nové album 16. 3. 2018 Stane se tak 1. června a ... - radiobeat.cz


Who:
Po čtyřiceti letech vyjde živák The Who - Po čtyřiceti letech vyjde živák The Who Autor: Iva Boková 21.02.2018 Tisk Půjde ... - abradio.cz


Daltrey Roger:
Anglický roker sa na staré kolená vydal na dráhu spisovateľa: Názov
novinky tají
- Roger Daltrey Roger Daltrey pred 14 hodinami LONDÝN - Frontman anglickej rock... - topky.sk


Who:
Legendy The Who lákají na unikátní live album - Legendy The Who lákají na unikátní live album Autor: Iva Boková 11.10.2017 Tisk ... - abradio.cz


Who:
Padesát nejlepších od The Who podle RS - přidáno: 4. 3. 2016 11:33, autor: Petr Nožička Pete Townshend a Roger Daltrey se spo... - rockplus.cz


Who:
V Kine Lumiere uvedú koncertný film The Who: Live in Hyde Park - V bratislavskom Kine Lumiere premietnu v utorok 24. novembra v slovenskej kinopremiére k...


Who:
The Who presúvajú severoamerickú časť turné The Who Hits 50! - Anglická rocková kapela The Who musela presunúť celú severoamerickú časť turné s...


Who:
Tretia časť hitov The Who sa blíži - Skupina Who vydá 30.októbra 3.časť špeciálneho setu svojich hitov pod názvom The T... - zst


 

Who

Fanúšikov: 7



A B C Č D E F G H CH I J K L Ľ M N O P Q R S Š T U V W X Y Z Ž



ako:
Who - Young Man Blues Version 2
Who - Young Man Blues Version 2

tlač

edituj
Rok vzniku: 1982
Pesničku videlo 2703 návštevníkov.

Kvalita tabov : bez hodnotenia
Hodnotilo ľudí: 0 ohodnoť aj ty
Prispievateľ:

Diwa Swina
Autor hudby: Who
key:
b=bend 1/4 step,
bf=bend a full step,
bb=1/2 step,
r=release,
h=hammeron,
p=pulloff,
/=down slide,
\=up slide,
~~~=vibrato

Gosh I love this song!It's probaby my very favorite who song and I think it shows the
talent of each member very well.john,pete and keith all get to shine during the jam
when the vocals rest(best part!),and this is their best version of this song.Do any of
you guys know if pete was high at the isle of weight festival?because i know he wasn't
high on live at leeds and i also know that he played better at leeds than the isle of
weight!


this is played at a fairly fast pace,it's played in the key of (E) the whole time so
if you want to improvise it should be fairly easy as well.To let you know,some of it
is played a 'little' sloppy so i tabbed what i think are the intensional notes for
the 'main' riffs,enjoy!

w/tube dist.
Intro
riffA-------------------|1st time. 2nd time.
(E) ~~~ 1st verse:pause,w/vocals.
|-------------------------|-------| |----------|
|----3-2-0----------------|-------| |---0w/drum|
|----4-2-0----------------|(0)(2)-| |---x-fill-|
|-2---------2p0---0--2p0--|-0--2--| |---2------|
|---------------2--------2|-------| |---2------|
|-------------------------|-------| |3b-0------|

w/riff A once,then play this rythm fig.

rhyfig.1 let ring pause .play rhyfig 1 twice with variations
|------------------------------|
|------------------------------|
|-2p0-0-2p0-0-2p0--------------|
|-2p0-0-2p0-0-2p0-5b-2--------2|
|--------------------2--------2|
|-----------------3b-0--------0|

trill~~~ pause pause,then play rhyfig 1 4x with slight variations
|------- |-12---|
|------- |-15bf-|
|------- |------|
|0h2p0-- |------|
|------- |------|
|------- |------|

pause |---| pause |----| pause
|---| |----|
|-2-| |----|
|-2-| |-12-|
|---| |-12-|
|---| |----|

Interlude:here are the chords
rhyfig2.
let ring palmmute---------------------------| x4
|------------------------||----------------------------------|
|------------------------||----------------------------------|
|-12-----12-------11-----||-------------------------12--11---|
|-12-----12-------12-----||-------------------------12--12---|
|-12-----12-------12-----||-------------------------12--12---|
|-0------0--------0------||-0-0-0-0-0-0-0-0-0-0-0-0----------|

end here end here
slight palmute 1st time 2nd time
x2 x ~~~
|----------||-------------|---------||-------- |-------|
|----------||-------------|---------||-------- |-------|
|----------||-------------|---------||-------- |-------|
|----12/14-||-----12/14\12|---12/14-||-0-2---- |----2--|
|----12/14-||-----12/14\12|---12/14-||-------- |----2--|
|0-0-10/12-||-0-0---------|-0-------||-------- |-3b-0--|

1st Guitar Solo:now for the REALY fun part!
[ Tab from: http://www.guitaretab.com/w/who/58594.html ]
when you play these pulloffs,
use small bends.
~~~~
|--------------------------------------------------------|
|--------------------------------------------------------|
|-------------------------------0------------------------|
|-5p0-5h0-5p0-5p0--5bb-2----0-2---2-0-2-0----0----0--2---|
|----5---5---5---5-----------------------------------2---|
|-----------------------------------------3bb--3bb---0---|
~~~~
|-----------------------------------------------------------------|
|------------------------------0--0-3-5-0-3-5-5-3-0-3h5-5-0-3h5-5-|
|-----5p0-----5p0--------------0----------------------------------|
|-5p0-----5p0-------5bb-x-2----0----------------------------------|
|----5---5---5----------------------------------------------------|
|-----------------------------------------------------------------|
w/fuzz
|-----3---3-2-------------------|--------------------------------------|
|-0-0-3---3-3-2-2-----2---------|-----15----15----15----15----15----15-|
|-0-0-0---0-2-2-2-----2-12------|-0h12--0h12--0h12--0h12--0h12--0h12---|
|-0-0-0---0-0-2-2-----2-12------|--------------------------------------|
|-------------0-0-----0-12------|--------------------------------------|
|-----------------3bb---0-------|--------------------------------------|
~~~~ ~~~
|---------------------/12-12----10bf-12-12--------12-12-----------|
|----------------------------12------------12-15bf------15bfr-15--|
|-0h12h14---12bbr-------------------------------------------------|
|---------12------14----------------------------------------------|
|-----------------------------------------------------------------|
|-----------------------------------------------------------------|
~~~
|------------------------------------------------------------------|
|-----14----15----15----15----15----15----14----14-------------9-8-|
|-0h12--0h12--0h12--0h12--0h12--0h12--0h12--0h12---12p0------------|
|--------------------------------------------------------14-7/9----|
|------------------------------------------------------------------|
|------------------------------------------------------------------|

interlude
fuzz off
rhyfig3 x3play with rhythm
|---------------||----------------------------------------| variations on
|----5-3--------||----------------------------------------| ocasion.
|----------2----||-------12-12---12-12---12-12-11-11-11---|
|-\5-----2-2----||-------12-12---12-12---12-12-12-12-11---|
|--------2-2----||-------12-12---12-12---12-12-12-12-12---|
|--------0-0----||-0-0-0----------------------------------|
2nd Guitar Solo
~~~~
|-------------------------|---------------------------------------|
|-------------------------|---------------------------------------|
|-----12-----12-----12----|---------------------------------------|
|-----12-----12-----12----|-0h2----0h2p0h2p0h2--0h2-0h2-0h2-------|
|-----12-----12-----12----|---------------------------------------|
|-0-0----0-0----0-0-0-----|---------------------------------3b----|

|--------------------------------------------------------------------------|
|-----------------------------3h555-3h555-3h555-3------------3h55-3h55-3h5-|
|------------------------12-----------------------4-2-0--------------------|
|-0h2p0---0-2-0-----2----12-----------------------------2-0----------------|
|-------2-----------2----12------------------------------------------------|
|----------------3b-0----0-------------------------------------------------|

|-3-5-3-0--0--------------------------------------------------------------|
|---------3---------3h55-3h55-3h55-3h55-3h55-3h55-3h55-3h55-------------0-|
|-------------4-2-0-----------------------------------------4-2-0-------0-|
|-----------------------------------------------------------------2-0-2-0-|
|-------------------------------------------------------------------------|
|-------------------------------------------------------------------------|
palmmute the octave riff below.
just toy with the E-octav pattern for a while with the g chord every now and then.
|------------------------- times 2 |-------|
|------------------------- |-------|
|-----------------------0- |-12----|
|-222---222--222---222--0- |-12----|
|-----------------------x- |-12----|
|0-----0----0-----0-----3- |-0-----|
~~~~~
|-------12----------------------------| you probably get it by now,all it is
|-15bf----1512151215121512-15bf-17-15-| is the blues scales and such. don't
|-------------------------------------| bother learning ANY of this note for
|-------------------------------------| not,pete plays everything different
|-------------------------------------| each time,including the riffs,not just
|-------------------------------------| the solos.just use these solos and
riffs to improvise off of and that way
you can make up your own cool solo!
I covered pretty much the whole thing
except for a little bit of the last
part which is never played the same.
this song is basicaly just a complex
jam in the key of (E) so you can prob-
ably figure the rest out for yourself.

right after the solo peted does this decending riff down the fret board in
half steps and then he does this little riffy thing.
play variations of this.
|----------------------|
|-15-14-14h15-12-12h14-|
|-14-14-14----14-14----|
|----------------------|
|----------------------|
|----------------------|

 
»
Tvoje obľúbené položky
Tvoje obľúbené položky
»
Najnovšie videá
Najnovšie videá

The Who Young Man Blues (Live At Leeds)

Young Man Blues - The Who (Live at Leeds

Young Man Blues Lesson - The Who

The Who - Young Man Blues - Watford 2002

Foo Fighters - Young Man Blues (live)

Joe Bonamassa - Young Man Blues - Live f

»
Najnavštevovanejšie piesne
Najnavštevovanejšie piesne
»
Nové albumy interpreta
Nové albumy interpreta
HRNEK Who Target [hrnČek]
HRNEK Target
[hrnček]
HRNEK Who Band [hrnČek]
HRNEK Band
[hrnček]
HRNEK Who R & b [hrnČek]
HRNEK R & b
[hrnček]
HRNEK Who Flag [hrnČek]
HRNEK Flag
[hrnček]
HRNEK Who Type [hrnČek]
HRNEK Type
[hrnček]
HRNEK Who My generation [hrnČek]
HRNEK My
generation
[hrnček]



home | interpreti | register piesní | cd & dvd shop | pripomienky/nápady | kontakt | ochrana údajov | inzercia

TOPlist