Devin Townsend

piesne (172)

  texty (148) / preklady (0)
  akordy (0) / taby (24)
  noty (0) / slideshow (0)

články (2)
fotogaléria
diskusia
videá
diskografia
v obchode
odkazy
koncerty
sťahuj



pridaj vlastný článok

Devin Townsend:
Dnes nový DEVIN TOWNSEND - Dnes nový DEVIN TOWNSEND! Presne dnes vychádza novinka z dielne šialeného kanaďana ... - metalirium.com


Devin Townsend:
DEVIN TOWNSEND s novinkou - DEVIN TOWNSEND s novinkou Kanadský šialenec Devin Townsend vydáva pod svojím menom n... - metalirium.com


Devin Townsend:
Devin Townsend komorně se španělkou po klubech - spark News, Video, live, devin townsend, tour, insideoutmusic 12.11.18 7:50 Devin Townse... - spark-rockmagazine.cz


Devin Townsend Project:
DEVIN TOWNSEND PROJECT přináší stroj z oceánu - spark News, Video, devin townsend 06.07.18 17:50 DEVIN TOWNSEND PROJECT přináší stro... - spark-rockmagazine.cz


Devin Townsend Project:
Nová superskupina IMONOLITH - Na poli moderního progresivního metalu vznikla nová superskupina, kterou tvoří zpěv... - metalforever.info


A Perfect Circle:
Týždeň v hard & heavy: Tool zverejnil časť skladby Descending - pred 5 hodinami | redakcia Čakanie je vždy bolestivé. A na dobré veci sa čaká o ... - zoznam.sk


Devin Townsend Project:
Devin Townsend vydá sérii luxusních vinylů s názvem „Eras“ - spark News, devin townsend 19.04.18 11:17 Devin Townsend vydá sérii luxusních vinylů... - spark-rockmagazine.cz


Akercocke:
Týždeň v hard & heavy: Čad získal rádiohlavu za Bastardov - včera o 00:00 | redakcia Desiaty ročník Radio_Head Awards nepriniesol žiadne prekv... - zoznam.sk


Devin Townsend:
DEVIN TOWNSEND - Plovdiv, Rímsky amfiteáter, 22. septembra 2017 - Boli časy, kedy sa našinec len ťažko dostal k zahraničnej hudbe, ešte ťažšie bol... - metalopolis.net


Devin Townsend:
Devin Townsend přijede se svým projektem již příští čtvrtek do Prahy - Devin Townsend přijede se svým projektem již příští čtvrtek do Prahy Vydáno: ... - musicserver.cz


 

Devin Townsend

Fanúšikov: 0



A B C Č D E F G H CH I J K L Ľ M N O P Q R S Š T U V W X Y Z Ž



ako:
Devin Townsend - Far Beyond Metal
Devin Townsend - Far Beyond Metal

tlač

edituj
Rok vzniku: 1998
Pesničku videlo 2277 návštevníkov.

Kvalita tabov : bez hodnotenia
Hodnotilo ľudí: 0 ohodnoť aj ty
Prispievateľ:

Diwa Swina
Autor hudby: Devin Townsend
Guitar 1
S S S S S S E. S S S S S S E. S S S E. S S S S S S E. S S S Guitar 1
S S S S S S E. S S S S S S E. S S S E. S S S S S S E. S S S
D||------------------------|------------------------|------------------------|
A||------------------------|------------------------|------------------------|
F||------------------------|------------------------|------------------------|
C||--------------3---------|--------5---------------|--------------3---------|
G||--------------3---------|--------5---------------|--------------3---------|
C||--0-0-0-0-0-0-3---0-0-0-|--0-0-0-5---0-0-0-3b~---|--0-0-0-0-0-0-3---0-0-0-|


S S S E. S S S S S S S S S S S S E. S S S
----------------------------|---------------------------|
----------------------------|---------------------------|
----------------------------|---------------------------|
--------5-------------------|---------------------------|
--------5-----------0h-3h-5-|---------------------------|
--0-0-0-5---0h-3h-5---------|--0-0-0-0-0-0-<>3~---0-0-0-|


S S S E. S S S E. S S S S S S E. S S S S S S E. Q.
---------------------------|---------------------------|----------------------|
---------------------------|---------------------------|----------------------|
---------------------------|---------------------------|----------------------|
---------------------------|---------------------------|----------------------|
---------------------------|---------------------------|----------------------|
--0-0-0-<>5~---0-0-0-3b~---|--0-0-0-0-0-0-<>3~---0-0-0-|--0-0-0-<>5~---L------|


S S S S S S S S S S S S S S S S S S S S S S S S
---------------------------|---------------------------|
---------------------------|---------------------------|
---------------------------|---------------------------|
---------------------------|---------------------------|
---------------------------|---------------------------|
--0-0-0-0-0-0-3p-0-0-0-0-0-|--0-0-0-5p-0-0-0-0-0-3-2-3-|


S S S S S S S S S S S S S S S S S S S S S S S S
---------------------------|-------------------------------|
---------------------------|-------------------------------|
---------------------------|-------------------------------|
---------------------------|-------------------------------|
---------------------------|-----------------------0h-3h-5-|
--0-0-0-0-0-0-3p-0-0-0-0-0-|--0-0-0-5p-0-0-0h-3h-5---------|


S S S S S S S S S S S S S S S S S S S S S S S S
---------------------------|---------------------------|
---------------------------|---------------------------|
---------------------------|---------------------------|
---------------------------|---------------------------|
---------------------------|---------------------------|
--0-0-0-0-0-0-3p-0-0-0-0-0-|--0-0-0-5p-0-0-0-0-0-3-2-3-|


^
S S S S S S S S S S S S H S E. S S S S S S E. S S S
---------------------------|-----------------|------------------------|
---------------------------|-----------------|------------------------|
---------------------------|--5--------L-5---|------------------------|
---------------------------|--3--------L-3---|--------------3---------|
---------------------------|--3--------L-3---|--------------3---------|
--0-0-0-0-0-0-3p-0-0-0-0-0-|--3--------L-3---|--0-0-0-0-0-0-3---0-0-0-|


S S S E. S S S E. S S S S S S E. S S S S S S E. S S S S S S
------------------------|------------------------|----------------------------|
------------------------|------------------------|----------------------------|
------------------------|------------------------|----------------------------|
--------5---------------|--------------3---------|--------5-------------------|
--------5---------------|--------------3---------|--------5-----------0h-3h-5-|
--0-0-0-5---0-0-0-3b~---|--0-0-0-0-0-0-3---0-0-0-|--0-0-0-5---0h-3h-5---------|


S S S S S S E. S S S S S S E. S S S E. S S S S S S E. S S S
------------------------|------------------------|------------------------|
------------------------|------------------------|------------------------|
------------------------|------------------------|------------------------|
--------------3---------|--------5---------------|--------------3---------|
--------------3---------|--------5---------------|--------------3---------|
--0-0-0-0-0-0-3---0-0-0-|--0-0-0-5---0-0-0-3b~---|--0-0-0-0-0-0-3---0-0-0-|


S S S E. S S S S S S S S S S S S S S S S S S
----------------------------|---------------------------------|
----------------------------|---------------------------------|
----------------------------|---------------------------------|
--------5-------------------|---------------------------------|
--------5-----------0h-3h-5-|-----------------------12--------|
--0-0-0-5---0h-3h-5---------|--0-0-0-0-0-0-0-12h-15----15p-12-|


S S S S S S S S S S S S S S S S S S S S S S S S
----------------------------------------|---------------------------------|
----------------------------------------|---------------------------------|
----------------------------------------|---------------------------------|
----------------------------------------|---------------------------------|
-----------11-----------------10--------|-----------------------12--------|
--0-11h-14----14p-11-0-10h-13----13p-10-|--0-0-0-0-0-0-0-12h-15----15p-12-|


S S S S S S S S S S S S E. E. S S S S S S
----------------------------------------|-----------------------------|
----------------------------------------|-----------------------------|
----------------------------------------|-----------------------------|
----------------------------------------|-----------------------------|
-----------11-----------------10--------|--0---0------------12--------|
--0-11h-14----14p-11-0-10h-13----13p-10-|--0---0---0-12h-15----15p-12-|


S S S S S S S S S S S S E. E. S S S S S S
----------------------------------------|-----------------------------|
----------------------------------------|-----------------------------|
----------------------------------------|-----------------------------|
----------------------------------------|-----------------------------|
-----------11-----------------10--------|--0---0------------12--------|
--0-11h-14----14p-11-0-10h-13----13p-10-|--0---0---0-12h-15----15p-12-|


S S S S S S S S S E. E. S S S E. S S S
------------------------------------|-----------------------|
------------------------------------|-----------------------|
------------------------------------|-----------------------|
------------------------------------|--3---------3----------|
-----------11-----------------10\---|--3---------3----------|
--0-11h-14----14p-11-0-10h-13-------|--3---0-0-0-3---0-0-0S-|


E E E E E E E. S S S S S S S S S S S S S S S S S S S S S
--------------------|------------------------|--------------------------|
--------------------|------------------------|--------------------------|
--------------------|------------------------|--------------------------|
--8--8--8--7--7--7--|--0---------------------|--------------------6-6-6-|
--8--8--8--7--7--7--|--0---------------------|--------------------6-6-6-|
--8--8--8--7--7--7--|--0---0-0-0-0-0-0-0-0-0-|--0-0-0-0-0-0-0-0-0-6-6-6-|


E. S S S S S S S S S S S S S S S S S S S S S E. S S S S S S S S S
------------------------|--------------------------|------------------------|
------------------------|--------------------------|------------------------|
------------------------|--------------------------|------------------------|
--0---------------------|--------------6-6-6-6-5-6-|--0---------------------|
--0---------------------|--------------6-6-6-6-5-6-|--0---------------------|
--0---0---0-0-0-0-0-0-0-|--0-0-0-0-0-0-6-6-6-6-5-6-|--0---0-0-0-0-0-0-0-0-0-|


S S S S S S S S S S S S E. S S S S S S S S S H.
--------------------------|------------------------|---------------|
--------------------------|------------------------|---------------|
--------------------------|------------------------|--5------------|
--------------------6-6-6-|--0---------------------|--3------------|
--------------------6-6-6-|--0---------------------|--3------------|
--0-0-0-0-0-0-0-0-0-6-6-6-|--0---0---0-0-0-0-0-0-0-|--3------------|


S S S S S S E. S S S S S S E. S S S E. S S S S S S E. S S S
------------------------|------------------------|------------------------|
------------------------|------------------------|------------------------|
------------------------|------------------------|------------------------|
--------------3---------|--------5---------------|--------------3---------|
--------------3---------|--------5---------------|--------------3---------|
--0---0-0-0-0-3---0-0-0-|--0-0-0-5---0-0-0-3b~---|--0-0-0-0-0-0-3---0-0-0-|


S S S E. S S S S S S S S S S S S E. S S S S S S E. S S S E.
----------------------------|------------------------|------------------------|
----------------------------|------------------------|------------------------|
----------------------------|------------------------|------------------------|
--------5-------------------|--------------3---------|--------5---------------|
--------5-----------0h-3h-5-|--------------3---------|--------5---------------|
--0-0-0-5---0h-3h-5---------|--0-0-0-0-0-0-3---0-0-0-|--0-0-0-5---0-0-0-3b~---|


S S S S S S E. S S S S S S E. S S S S S S
---------------------------|----------------------------|
---------------------------|----------------------------|
---------------------------|----------------------------|
---------------------------|--------5-------------------|
---------------------------|--------5-----------0h-3h-5-|
--0-0-0-0-0-0-<>3~---0-0-0-|--0-0-0-5---0h-3h-5---------|


S S S S S S S S S S S S E. S S S S S S S S S S S S S S S S S S S S S
--------------------------|------------------------|--------------------------|
--------------------------|------------------------|--------------------------|
--------------------------|------------------------|--------------------------|
--------------------------|--0---------------------|--------------------6-6-6-|
--0-0-0-0---0---0---0---0-|--0---------------------|--------------------6-6-6-|
--0-0-0-0---0---0---0---0-|--0---0-0-0-0-0-0-0-0-0-|--0-0-0-0-0-0-0-0-0-6-6-6-|


E. S S S S S S S S S S S S S S S S S S S S S E. S S S S S S S S S
------------------------|--------------------------|------------------------|
------------------------|--------------------------|------------------------|
------------------------|--------------------------|------------------------|
--0---------------------|--------------6-6-6-6-5-6-|--0---------------------|
--0---------------------|--------------6-6-6-6-5-6-|--0---------------------|
--0---0---0-0-0-0-0-0-0-|--0-0-0-0-0-0-6-6-6-6-5-6-|--0---0-0-0-0-0-0-0-0-0-|


S S S S S S S S S S S S E. S S S S S S S S S H.
--------------------------|------------------------|---------------|
--------------------------|------------------------|---------------|
--------------------------|------------------------|--5------------|
--------------------6-6-6-|--0---------------------|--3------------|
--------------------6-6-6-|--0---------------------|--3------------|
--0-0-0-0-0-0-0-0-0-6-6-6-|--0---0---0-0-0-0-0-0-0-|--3------------|


S S S S S S E. S S S S S S E. S S S E. S S S S S S E. S S S
------------------------|------------------------|------------------------|
------------------------|------------------------|------------------------|
------------------------|------------------------|------------------------|
--------------3---------|--------5---------------|--------------3---------|
--------------3---------|--------5---------------|--------------3---------|
--0-0-0-0-0-0-3---0-0-0-|--0-0-0-5---0-0-0-3b~---|--0-0-0-0-0-0-3---0-0-0-|


S S S E. S S S S S S S S S S S S E. S S S S S S E. S S S E.
----------------------------|------------------------|------------------------|
----------------------------|------------------------|------------------------|
----------------------------|------------------------|------------------------|
--------5-------------------|--------------3---------|--------5---------------|
--------5-----------0h-3h-5-|--------------3---------|--------5---------------|
--0-0-0-5---0h-3h-5---------|--0-0-0-0-0-0-3---0-0-0-|--0-0-0-5---0-0-0-3b~---|


S S S S S S E. S S S S S S E. S S S S S S
---------------------------|----------------------------|
---------------------------|----------------------------|
---------------------------|----------------------------|
---------------------------|--------5-------------------|
---------------------------|--------5-----------0h-3h-5-|
--0-0-0-0-0-0-<>3~---0-0-0-|--0-0-0-5---0h-3h-5---------|


S S S S S S S S S S S S S S S S S S S S S S S S
---------------------------------|----------------------------------------|
---------------------------------|----------------------------------------|
---------------------------------|----------------------------------------|
---------------------------------|----------------------------------------|
-----------------------12--------|-----------11-----------------10--------|
--0-0-0-0-0-0-0-12h-15----15p-12-|--0-11h-14----14p-11-0-10h-13----13p-10-|


S S S S S S S S S S S S S S S S S S S S S S S S
---------------------------------|----------------------------------------|
---------------------------------|----------------------------------------|
---------------------------------|----------------------------------------|
---------------------------------|----------------------------------------|
-----------------------12--------|-----------11-----------------10--------|
--0-0-0-0-0-0-0-12h-15----15p-12-|--0-11h-14----14p-11-0-10h-13----13p-10-|


E. E. S S S S S S S S S S S S S S S S S S
-----------------------------|----------------------------------------|
-----------------------------|----------------------------------------|
-----------------------------|----------------------------------------|
-----------------------------|----------------------------------------|
--0---0------------12--------|-----------11-----------------10--------|
--0---0---0-12h-15----15p-12-|--0-11h-14----14p-11-0-10h-13----13p-10-|


E. E. S S S S S S S S S S S S S S S E.
-----------------------------|------------------------------------|
-----------------------------|------------------------------------|
-----------------------------|------------------------------------|
-----------------------------|------------------------------------|
--0---0------------12--------|-----------11-----------------10\---|
--0---0---0-12h-15----15p-12-|--0-11h-14----14p-11-0-10h-13-------|


E. S S S E. S S S E E E E E E H. H.
-----------------------|--------------------|---------------|---------------|
-----------------------|--------------------|---------------|---------------|
-----------------------|--------------------|---------------|---------------|
--3---------3----------|--8--8--8--7--7--7--|--0------------|--3------------|
--3---------3----------|--8--8--8--7--7--7--|--0------------|--3------------|
--3---0-0-0-3---0-0-0S-|--8--8--8--7--7--7--|--0------------|--3------------|


Pickslide
H. E. E. Q. H. H.
---------------|-----------------------|---------------|---------------|
---------------|-----------------------|---------------|---------------|
---------------|-----------------------|---------------|---------------|
--8------------|--7---x----------------|--0------------|--3------------|
--8------------|--7---x----------------|--0------------|--3------------|
--8------------|--7---x----------------|--0------------|--3------------|


H. E. E. E. E. H. H.
---------------|---------------------|---------------|---------------|
---------------|---------------------|---------------|---------------|
---------------|---------------------|---------------|---------------|
--8------------|--7------------------|--0------------|--3------------|
--8------------|--7------------------|--0------------|--3------------|
--8------------|--7---5---<>3~---2---|--0------------|--3------------|


H. H. Q. Q. Q. Q.
---------------|---------------|----------------|----------------|
---------------|---------------|----------------|----------------|
---------------|---------------|----------------|----------------|
--8------------|--7------------|--5------5------|--5------5------|
--8------------|--7------------|--5------5------|--5------5------|
--8------------|--7------------|--5------5------|--5------5------|


H. E. E. E. E. E S S S S E S S S S
---------------|---------------------|------------------------|
---------------|---------------------|------------------------|
---------------|---------------------|------------------------|
--7------------|--7------------------|------------------------|
--7------------|--7------------------|--0----------0----------|
--7------------|--7---5---<>3~---2---|--0--0-0-0-0-0--0-0-0-0-|


E S S S S E S S S S E S S S S E S S S S E S S S S E Q
------------------------|------------------------|-----------------------|
------------------------|------------------------|-----------------------|
------------------------|------------------------|-----------------------|
------------------------|------------------------|-----------------------|
--6----------6----------|--0----------0----------|--6----------6---------|
--6--6-6-6-6-6--6-6-6-6-|--0--0-0-0-0-0--0-0-0-0-|--6--6-6-6-6-6--14\----|


S S S S S S S S S S S S S S S S S S S S S S S S
--------------------------|--------------------------|
--------------------------|--------------------------|
--------------------------|--------------------------|
--------------------------|--------------------------|
--5-----------2-----------|--5-----------2-----------|
----6-5-0-5-6---3-2-0-2-3-|----6-5-0-5-6---3-2-0-2-3-|


S S S S S S S S S S S S S S S S S S S S S E.
--------------------------|---------------------------|
--------------------------|---------------------------|
--------------------------|---------------------------|
--------------------------|---------------------------|
--5-----------2-----------|--5-----------2------------|
----6-5-0-5-6---3-2-0-2-3-|----6-5-0-5-6---3-2-<>3~---|


S S S S S S S S S S S S S S S S S S S S S S S S
--------------------------|--------------------------|
--------------------------|--------------------------|
--------------------------|--------------------------|
--------------------------|--------------------------|
--5-----------2-----------|--5-----------2-----------|
----6-5-0-5-6---3-2-0-2-3-|----6-5-0-5-6---3-2-0-2-3-|


PM PM PM PM
S S S S S S S S S S S S S S S S S S E S E S E S S S S E S S S S
--------------------------|------------------------|------------------------|
--------------------------|------------------------|------------------------|
--------------------------|------------------------|------------------------|
--------------------------|------------------------|------------------------|
--5-----------2-----------|--5-----2---------------|------------------------|
----6-5-0-5-6---3-2-0-2-3-|----6-5---3-2-0----0----|--0--0-0-0-0-0--0-0-0-0-|


PM PM PM PM PM PM
E S S S S E S S S S E S S S S E S S S S E S S S S E S S S S
------------------------|------------------------|------------------------|
------------------------|------------------------|------------------------|
------------------------|------------------------|------------------------|
------------------------|------------------------|------------------------|
------------------------|------------------------|------------------------|
--0--0-0-0-0-0--0-0-0-0-|--0--0-0-0-0-0--0-0-0-0-|--0--0-0-0-0-0--0-0-0-0-|


W \1
E Q Q. H. S S S S S S S S S S S S
------------------|-----------------|--------------------------------------|
------------------|-----------------|--18-17-15-17-15----15----------------|
------------------|-----------------|-----------------17----17-16-17-16-14-|
-----13----L------|--13\------------|--------------------------------------|
------------------|-----------------|--------------------------------------|
--0---------------|-----------------|--------------------------------------|


S S S S S S Q. E. S S S E. S S S
-----------------------------|------------------------------|
-----------------------------|--15---15-15-15-15---15-15-15-|
--16-14----14----------------|------------------------------|
--------17----17-15-15b------|------------------------------|
-----------------------------|------------------------------|
-----------------------------|------------------------------|


E. S S S E. E. E. S S S E. S S S
---------------------------|------------------------------|
--13---13-13-13-13---------|--15---15-15-15-15---15-15-15-|
---------------------/14---|------------------------------|
---------------------------|------------------------------|
---------------------------|------------------------------|
---------------------------|------------------------------|


Pickslide
E. E. Q. E. S S S E. S S S
------------------------|-------------------------------|
--13--------------------|--15---15-15-15-15---15-15-15S-|
------------------------|-------------------------------|
-------x----------------|-------------------------------|
-------x----------------|-------------------------------|
-------x----------------|-------------------------------|


E. S S S E. E. E. S S S E. S S S H.
--------------------------|--------------------------------|-----------------|
--18---18-18-18-18--------|--15---15-15-15-15---15h-17p-15-|--14~------------|
---------------------14---|--------------------------------|-----------------|
--------------------------|--------------------------------|-----------------|
--------------------------|--------------------------------|-----------------|
--------------------------|--------------------------------|-----------------|


Q. E E E H Q Q. E. E.
-----------------------|------------------|--------------------|
--/15------15--15--15--|--13--------------|--------------------|
-----------------------|------------14----|--12------10---12---|
-----------------------|------------------|--------------------|
-----------------------|------------------|--------------------|
-----------------------|------------------|--------------------|


H. Q. Q. Q. Q.
-----------------|------------------|-------------------|
-----------------|------------------|-------------------|
--14~------------|--12------14------|--14b------12------|
-----------------|------------------|-------------------|
-----------------|------------------|-------------------|
-----------------|------------------|-------------------|


E S E S Q. H. H. H.
-------------------------|------------------|---------------|---------------|
-------------------------|------------------|---------------|---------------|
--14--16-14--12-14\------|------------------|---------------|---------------|
-------------------------|------------------|---------------|---------------|
-------------------------|------------------|---------------|---------------|
-------------------------|--7brb------------|--L------------|--L------------|


PM PM PM
S E E S S S Q. E. S S S S S S S S S S S S S S S S S S S S S
-----------------------|------------------------|--------------------------|
-----------------------|------------------------|--------------------------|
-----------------------|------------------------|--------------------------|
-----------------------|--0---------------------|--------------------6-6-6-|
--0-0--0--0-0-0-0------|--0---------------------|--------------------6-6-6-|
--0-0--0--0-0-0-0------|--0---0-0-0-0-0-0-0-0-0-|--0-0-0-0-0-0-0-0-0-6-6-6-|


E. S S S S S S S S S S S S S S S S S S S S S E. S S S S S S S S S
------------------------|--------------------------|------------------------|
------------------------|--------------------------|------------------------|
------------------------|--------------------------|------------------------|
--0---------------------|--------------6-6-6-6-5-6-|--0---------------------|
--0---------------------|--------------6-6-6-6-5-6-|--0---------------------|
--0---0---0-0-0-0-0-0-0-|--0-0-0-0-0-0-6-6-6-6-5-6-|--0---0-0-0-0-0-0-0-0-0-|


PM PM PM PM PM PM
S S S S S S S S S S S S E. S S S S S S S S S E E E E E E
--------------------------|------------------------|--------------------|
--------------------------|------------------------|--------------------|
--------------------------|------------------------|--------------------|
--------------------6-6-6-|--0---------------------|--------------------|
--------------------6-6-6-|--0---------------------|--0--0--0--0--0--0--|
--0-0-0-0-0-0-0-0-0-6-6-6-|--0---0---0-0-0-0-0-0-0-|--0--0--0--0--0--0--|


S S S S S S E. S S S S S S E. S S S E. S S S S S S E. S S S
------------------------|------------------------|------------------------|
------------------------|------------------------|------------------------|
------------------------|------------------------|------------------------|
--------------3---------|--------5---------------|--------------3---------|
--------------3---------|--------5---------------|--------------3---------|
--0-0-0-0-0-0-3---0-0-0-|--0-0-0-5---0-0-0-3b~---|--0-0-0-0-0-0-3---0-0-0-|


S S S E. S S S S S S S S S S S S E. S S S
----------------------------|---------------------------|
----------------------------|---------------------------|
----------------------------|---------------------------|
--------5-------------------|---------------------------|
--------5-----------0h-3h-5-|---------------------------|
--0-0-0-5---0h-3h-5---------|--0-0-0-0-0-0-<>3~---0-0-0-|


S S S E. S S S E. S S S S S S E. S S S S S S E. Q.
---------------------------|---------------------------|----------------------|
---------------------------|---------------------------|----------------------|
---------------------------|---------------------------|----------------------|
---------------------------|---------------------------|----------------------|
---------------------------|---------------------------|----------------------|
--0-0-0-<>5~---0-0-0-3b~---|--0-0-0-0-0-0-<>3~---0-0-0-|--0-0-0-<>5~---L------|


S S S S S S S S S S S S S S S S S S S S S S S S
---------------------------------|----------------------------------------|
---------------------------------|----------------------------------------|
---------------------------------|----------------------------------------|
---------------------------------|----------------------------------------|
-----------------------12--------|-----------11-----------------10--------|
--0-0-0-0-0-0-0-12h-15----15p-12-|--0-11h-14----14p-11-0-10h-13----13p-10-|


S S S S S S S S S S S S S S S S S S S S S S S S
---------------------------------|----------------------------------------|
---------------------------------|----------------------------------------|
---------------------------------|----------------------------------------|
---------------------------------|----------------------------------------|
-----------------------12--------|-----------11-----------------10--------|
--0-0-0-0-0-0-0-12h-15----15p-12-|--0-11h-14----14p-11-0-10h-13----13p-10-|


PM
E. E. S S S S S S S S S S S S S S S S S S
-----------------------------|----------------------------------------|
-----------------------------|----------------------------------------|
-----------------------------|----------------------------------------|
-----------------------------|----------------------------------------|
--0---0------------12--------|-----------11-----------------10--------|
--0---0---0-12h-15----15p-12-|--0-11h-14----14p-11-0-10h-13----13p-10-|


PM
E. E. S S S S S S S S S S S S S S S E.
-----------------------------|------------------------------------|
-----------------------------|------------------------------------|
-----------------------------|------------------------------------|
-----------------------------|------------------------------------|
--0---0------------12--------|-----------11-----------------10\---|
--0---0---0-12h-15----15p-12-|--0-11h-14----14p-11-0-10h-13-------|


E. S S S E. S S S E E E E E E E. S S S E. S S S
-----------------------|--------------------|----------------------|
-----------------------|--------------------|----------------------|
-----------------------|--------------------|----------------------|
--3---------3----------|--8--8--8--7--7--7--|--3---------3---------|
--3---------3----------|--8--8--8--7--7--7--|--3---------3---------|
--3---0-0-0-3---0-0-0S-|--8--8--8--7--7--7--|--3---0-0-0-3---0-0-0-|

[ Tab from: http://www.guitaretab.com/d/devin-townsend/148467.html ]
S S S S S S S S S S S S H. H. H.
--------------------------|---------------|---------------|---------------|
--------------------------|---------------|---------------|---------------|
--------------------------|---------------|---------------|---------------|
--------------7-7-7-5-5-5-|--0------------|--3------------|--8------------|
--8-8-8-7-7-7-------------|--0------------|--3------------|--8------------|
--------------------------|--0------------|--3------------|--8------------|


Q H H. H. H.
-------------------|---------------|---------------|---------------|
-------------------|---------------|---------------|---------------|
-------------------|---------------|---------------|---------------|
--7----------------|--0------------|--3------------|--8------------|
--7----------------|--0------------|--3------------|--8------------|
--7S----14S--------|--0------------|--3------------|--8------------|


E. E. E. E. Q. E E E H Q
---------------------|-----------------------|------------------|
---------------------|--/15------15--15--15--|--13--------------|
---------------------|-----------------------|------------14----|
--7------------------|-----------------------|------------------|
--7------------------|-----------------------|------------------|
--7---5---<>3~---2---|-----------------------|------------------|


PM PM
Q. E. E. E S E. E S E. Q. Q.
--------------------|--------------------------|----------------|
--------------------|--------------------------|----------------|
--12------10---12---|-------<>14--------<>14---|----------------|
--------------------|--------------------------|--5------5------|
--------------------|--0--0--------0--0--------|--5------5------|
--------------------|--------------------------|--5------5------|


Q. Q. Q H E. E. E. E.
----------------|-------------------|---------------------|
----------------|-------------------|---------------------|
----------------|-------------------|---------------------|
--5------5------|--7----------------|--7------------------|
--5------5------|--7----------------|--7------------------|
--5------5------|--7S----14S--------|--7---5---<>3~---2---|


E S S S S E S S S S E S S S S E S S S S E S S S S E S S S S
------------------------|------------------------|------------------------|
------------------------|------------------------|------------------------|
------------------------|------------------------|------------------------|
------------------------|------------------------|------------------------|
--0----------0----------|--6----------6----------|--0----------0----------|
--0--0-0-0-0-0--0-0-0-0-|--6--6-6-6-6-6--6-6-6-6-|--0--0-0-0-0-0--0-0-0-0-|


E S S S S E S S S S E S S S S E S S S S E S S S S E S S S S
------------------------|------------------------|------------------------|
------------------------|------------------------|------------------------|
------------------------|------------------------|------------------------|
------------------------|------------------------|------------------------|
--6----------6----------|--0----------0----------|--6----------6----------|
--6--6-6-6-6-6--6-6-6-6-|--0--0-0-0-0-0--0-0-0-0-|--6--6-6-6-6-6--6-6-6-6-|


Pickslide
PM PM
H. E E E E E E E. E. Q E. E. Q.
---------------|--------------------|--10----10---------|--12----12----L------|
---------------|--------------------|--13b---13b--------|--15b---15b---L------|
---------------|--------------------|-------------------|---------------------|
--x------------|--6--6--6--6--------|-------------------|---------------------|
--x------------|--6--6--6--6--6--6--|-------------------|---------------------|
--x------------|--6--6--6--6--6--6--|-------------------|---------------------|


H. H. Q H Q. E
--L------------|--L------------|--L----x--------|------------||
--L------------|--L------------|--L----x--------|------------||
---------------|---------------|----------------|------------||
---------------|---------------|----------------|------------||
---------------|---------------|----------------|------------||
---------------|---------------|----------------|---------0--||







Guitar 2

S S S S S S E. S S S S S S E. S S S E. S S S S S S E. S S S
D||------------------------|------------------------|------------------------|
A||------------------------|------------------------|------------------------|
F||------------------------|------------------------|------------------------|
C||--------------3---------|--------5---------------|--------------3---------|
G||--------------3---------|--------5---------------|--------------3---------|
C||--0-0-0-0-0-0-3---0-0-0-|--0-0-0-5---0-0-0-3b~---|--0-0-0-0-0-0-3---0-0-0-|


S S S E. S S S S S S S S S S S S E. S S S
----------------------------|---------------------------|
----------------------------|---------------------------|
----------------------------|---------------------------|
--------5-------------------|---------------------------|
--------5-----------0h-3h-5-|---------------------------|
--0-0-0-5---0h-3h-5---------|--0-0-0-0-0-0-<>3~---0-0-0-|


NH
S S S E. S S S E. S S S S S S E. S S S S S S E. Q.
---------------------------|---------------------------|---------------------|
---------------------------|---------------------------|---------------------|
---------------------------|---------------------------|--------<>7---L------|
---------------------------|---------------------------|---------------------|
---------------------------|---------------------------|---------------------|
--0-0-0-<>5~---0-0-0-3b~---|--0-0-0-0-0-0-<>3~---0-0-0-|--0-0-0--------------|


S S S S S S S S S S S S S S S S S S S S S S S S
---------------------------|---------------------------|
---------------------------|---------------------------|
---------------------------|---------------------------|
---------------------------|---------------------------|
---------------------------|---------------------------|
--0-0-0-0-0-0-3p-0-0-0-0-0-|--0-0-0-5p-0-0-0-0-0-3-2-3-|


S S S S S S S S S S S S S S S S S S S S S S S S
---------------------------|-------------------------------|
---------------------------|-------------------------------|
---------------------------|-------------------------------|
---------------------------|-------------------------------|
---------------------------|-----------------------0h-3h-5-|
--0-0-0-0-0-0-3p-0-0-0-0-0-|--0-0-0-5p-0-0-0h-3h-5---------|


S S S S S S S S S S S S S S S S S S S S S S S S
---------------------------|---------------------------|
---------------------------|---------------------------|
---------------------------|---------------------------|
---------------------------|---------------------------|
---------------------------|---------------------------|
--0-0-0-0-0-0-3p-0-0-0-0-0-|--0-0-0-5p-0-0-0-0-0-3-2-3-|


^
S S S S S S S S S S S S H S E. S S S S S S E. S S S
---------------------------|-----------------|------------------------|
---------------------------|-----------------|------------------------|
---------------------------|--5--------L-5---|------------------------|
---------------------------|--3--------L-3---|--------------3---------|
---------------------------|--3--------L-3---|--------------3---------|
--0-0-0-0-0-0-3p-0-0-0-0-0-|--3--------L-3---|--0-0-0-0-0-0-3---0-0-0-|


S S S E. S S S E. S S S S S S E. S S S S S S E. S S S S S S
------------------------|------------------------|----------------------------|
------------------------|------------------------|----------------------------|
------------------------|------------------------|----------------------------|
--------5---------------|--------------3---------|--------5-------------------|
--------5---------------|--------------3---------|--------5-----------0h-3h-5-|
--0-0-0-5---0-0-0-3b~---|--0-0-0-0-0-0-3---0-0-0-|--0-0-0-5---0h-3h-5---------|


S S S S S S E. S S S S S S E. S S S E. S S S S S S E. S S S
------------------------|------------------------|------------------------|
------------------------|------------------------|------------------------|
------------------------|------------------------|------------------------|
--------------3---------|--------5---------------|--------------3---------|
--------------3---------|--------5---------------|--------------3---------|
--0-0-0-0-0-0-3---0-0-0-|--0-0-0-5---0-0-0-3b~---|--0-0-0-0-0-0-3---0-0-0-|


S S S E. S S S S S S S S S S S S S S S S S S
----------------------------|---------------------------------|
----------------------------|---------------------------------|
----------------------------|---------------------------------|
--------5-------------------|---------------------------------|
--------5-----------0h-3h-5-|-----------------------12--------|
--0-0-0-5---0h-3h-5---------|--0-0-0-0-0-0-0-12h-15----15p-12-|


S S S S S S S S S S S S S S S S S S S S S S S S
----------------------------------------|---------------------------------|
----------------------------------------|---------------------------------|
----------------------------------------|---------------------------------|
----------------------------------------|---------------------------------|
-----------11-----------------10--------|-----------------------12--------|
--0-11h-14----14p-11-0-10h-13----13p-10-|--0-0-0-0-0-0-0-12h-15----15p-12-|


S S S S S S S S S S S S E. E. S S S S S S
----------------------------------------|---------------------------|
----------------------------------------|---------------------------|
----------------------------------------|---------------------------|
----------------------------------------|------------------10-------|
-----------11-----------------10--------|--0---0-----8h-12----12p-8-|
--0-11h-14----14p-11-0-10h-13----13p-10-|--0---0---0----------------|


S S S S S S S S S S S S E. E. S S S S S S
----------------------------------|---------------------------|
----------------------------------|---------------------------|
----------------------------------|---------------------------|
----------9---------------8-------|------------------10-------|
----7h-11---11p-7---6h-10---10p-6-|--0---0-----8h-12----12p-8-|
--0---------------0---------------|--0---0---0----------------|


S S S S S S S S S E. E. S S S E. S S S E E E E E E
-------------------------------|-----------------------|--------------------|
-------------------------------|-----------------------|--------------------|
-------------------------------|-----------------------|--------------------|
----------9---------------8\---|--3---------3----------|--8--8--8--7--7--7--|
----7h-11---11p-7---6h-10------|--3---------3----------|--8--8--8--7--7--7--|
--0---------------0------------|--3---0-0-0-3---0-0-0S-|--8--8--8--7--7--7--|


E. S S S S S S S S S S S S S S S S S S S S S E. S S S S S S S S S
------------------------|--------------------------|------------------------|
------------------------|--------------------------|------------------------|
------------------------|--------------------------|------------------------|
--0---------------------|--------------------6-6-6-|--0---------------------|
--0---------------------|--------------------6-6-6-|--0---------------------|
--0---0-0-0-0-0-0-0-0-0-|--0-0-0-0-0-0-0-0-0-6-6-6-|--0---0---0-0-0-0-0-0-0-|


S S S S S S S S S S S S E. S S S S S S S S S S S S S S S S S S S S S
--------------------------|------------------------|--------------------------|
--------------------------|------------------------|--------------------------|
--------------------------|------------------------|--------------------------|
--------------6-6-6-6-5-6-|--0---------------------|--------------------6-6-6-|
--------------6-6-6-6-5-6-|--0---------------------|--------------------6-6-6-|
--0-0-0-0-0-0-6-6-6-6-5-6-|--0---0-0-0-0-0-0-0-0-0-|--0-0-0-0-0-0-0-0-0-6-6-6-|


E. S S S S S S S S S H. S S S S S S E. S S S
------------------------|---------------|------------------------|
------------------------|---------------|------------------------|
------------------------|--5------------|------------------------|
--0---------------------|--3------------|--------------3---------|
--0---------------------|--3------------|--------------3---------|
--0---0---0-0-0-0-0-0-0-|--3------------|--0---0-0-0-0-3---0-0-0-|


S S S E. S S S E. S S S S S S E. S S S S S S E. S S S S S S
------------------------|------------------------|----------------------------|
------------------------|------------------------|----------------------------|
------------------------|------------------------|----------------------------|
--------5---------------|--------------3---------|--------5-------------------|
--------5---------------|--------------3---------|--------5-----------0h-3h-5-|
--0-0-0-5---0-0-0-3b~---|--0-0-0-0-0-0-3---0-0-0-|--0-0-0-5---0h-3h-5---------|


S S S S S S E. S S S S S S E. S S S E. S S S S S S E. S S S
------------------------|------------------------|---------------------------|
------------------------|------------------------|---------------------------|
------------------------|------------------------|---------------------------|
--------------3---------|--------5---------------|---------------------------|
--------------3---------|--------5---------------|---------------------------|
--0-0-0-0-0-0-3---0-0-0-|--0-0-0-5---0-0-0-3b~---|--0-0-0-0-0-0-<>3~---0-0-0-|


S S S E. S S S S S S S S S S S S S S S S S S
----------------------------|--------------------------|
----------------------------|--------------------------|
----------------------------|--------------------------|
--------5-------------------|--------------------------|
--------5-----------0h-3h-5-|--0-0-0-0---0---0---0---0-|
--0-0-0-5---0h-3h-5---------|--0-0-0-0---0---0---0---0-|


E. S S S S S S S S S S S S S S S S S S S S S E. S S S S S S S S S
------------------------|--------------------------|------------------------|
------------------------|--------------------------|------------------------|
------------------------|--------------------------|------------------------|
--0---------------------|--------------------6-6-6-|--0---------------------|
--0---------------------|--------------------6-6-6-|--0---------------------|
--0---0-0-0-0-0-0-0-0-0-|--0-0-0-0-0-0-0-0-0-6-6-6-|--0---0---0-0-0-0-0-0-0-|


S S S S S S S S S S S S E. S S S S S S S S S S S S S S S S S S S S S
--------------------------|------------------------|--------------------------|
--------------------------|------------------------|--------------------------|
--------------------------|------------------------|--------------------------|
--------------6-6-6-6-5-6-|--0---------------------|--------------------6-6-6-|
--------------6-6-6-6-5-6-|--0---------------------|--------------------6-6-6-|
--0-0-0-0-0-0-6-6-6-6-5-6-|--0---0-0-0-0-0-0-0-0-0-|--0-0-0-0-0-0-0-0-0-6-6-6-|


E. S S S S S S S S S H. S S S S S S E. S S S
------------------------|---------------|------------------------|
------------------------|---------------|------------------------|
------------------------|--5------------|------------------------|
--0---------------------|--3------------|--------------3---------|
--0---------------------|--3------------|--------------3---------|
--0---0---0-0-0-0-0-0-0-|--3------------|--0-0-0-0-0-0-3---0-0-0-|


S S S E. S S S E. S S S S S S E. S S S S S S E. S S S S S S
------------------------|------------------------|----------------------------|
------------------------|------------------------|----------------------------|
------------------------|------------------------|----------------------------|
--------5---------------|--------------3---------|--------5-------------------|
--------5---------------|--------------3---------|--------5-----------0h-3h-5-|
--0-0-0-5---0-0-0-3b~---|--0-0-0-0-0-0-3---0-0-0-|--0-0-0-5---0h-3h-5---------|


S S S S S S E. S S S S S S E. S S S E. S S S S S S E. S S S
------------------------|------------------------|---------------------------|
------------------------|------------------------|---------------------------|
------------------------|------------------------|---------------------------|
--------------3---------|--------5---------------|---------------------------|
--------------3---------|--------5---------------|---------------------------|
--0-0-0-0-0-0-3---0-0-0-|--0-0-0-5---0-0-0-3b~---|--0-0-0-0-0-0-<>3~---0-0-0-|


S S S E. S S S S S S S S S S S S S S S S S S
----------------------------|---------------------------------|
----------------------------|---------------------------------|
----------------------------|---------------------------------|
--------5-------------------|---------------------------------|
--------5-----------0h-3h-5-|-----------------------12--------|
--0-0-0-5---0h-3h-5---------|--0-0-0-0-0-0-0-12h-15----15p-12-|


S S S S S S S S S S S S S S S S S S S S S S S S
----------------------------------------|---------------------------------|
----------------------------------------|---------------------------------|
----------------------------------------|---------------------------------|
----------------------------------------|---------------------------------|
-----------11-----------------10--------|-----------------------12--------|
--0-11h-14----14p-11-0-10h-13----13p-10-|--0-0-0-0-0-0-0-12h-15----15p-12-|


S S S S S S S S S S S S E. E. S S S S S S
----------------------------------------|---------------------------|
----------------------------------------|---------------------------|
----------------------------------------|---------------------------|
----------------------------------------|------------------10-------|
-----------11-----------------10--------|--0---0-----8h-12----12p-8-|
--0-11h-14----14p-11-0-10h-13----13p-10-|--0---0---0----------------|


S S S S S S S S S S S S E. E. S S S S S S
----------------------------------|---------------------------|
----------------------------------|---------------------------|
----------------------------------|---------------------------|
----------9---------------8-------|------------------10-------|
----7h-11---11p-7---6h-10---10p-6-|--0---0-----8h-12----12p-8-|
--0---------------0---------------|--0---0---0----------------|


S S S S S S S S S E. E. S S S E. S S S E E E E E E
-------------------------------|-----------------------|--------------------|
-------------------------------|-----------------------|--------------------|
-------------------------------|-----------------------|--------------------|
----------9---------------8\---|--3---------3----------|--8--8--8--7--7--7--|
----7h-11---11p-7---6h-10------|--3---------3----------|--8--8--8--7--7--7--|
--0---------------0------------|--3---0-0-0-3---0-0-0S-|--8--8--8--7--7--7--|


Pickslide
H. H. H. E. E. Q.
---------------|---------------|---------------|-----------------------|
---------------|---------------|---------------|-----------------------|
---------------|---------------|---------------|-----------------------|
--0------------|--3------------|--8------------|--7---x----------------|
--0------------|--3------------|--8------------|--7---x----------------|
--0------------|--3------------|--8------------|--7---x----------------|


H. H. H. E. E. E. E.
---------------|---------------|---------------|------------------|
---------------|---------------|---------------|------------------|
---------------|---------------|---------------|------------------|
--0------------|--3------------|--8------------|--7---------------|
--0------------|--3------------|--8------------|--7---------------|
--0------------|--3------------|--8------------|--7---5---3---2---|


H. H. H. H.
---------------|---------------|---------------|---------------|
---------------|---------------|---------------|---------------|
---------------|---------------|---------------|---------------|
--0------------|--3------------|--8------------|--7------------|
--0------------|--3------------|--8------------|--7------------|
--0------------|--3------------|--8------------|--7------------|


Q. Q. Q. Q. H. E. E. E. E.
----------------|----------------|---------------|---------------------|
----------------|----------------|---------------|---------------------|
----------------|----------------|---------------|---------------------|
--5------5------|--5------5------|--7------------|--7------------------|
--5------5------|--5------5------|--7------------|--7------------------|
--5------5------|--5------5------|--7------------|--7---5---<>3~---2---|


E S S S S E S S S S E S S S S E S S S S E S S S S E S S S S
------------------------|------------------------|------------------------|
------------------------|------------------------|------------------------|
------------------------|------------------------|------------------------|
------------------------|------------------------|------------------------|
--0----------0----------|--6----------6----------|--0----------0----------|
--0--0-0-0-0-0--0-0-0-0-|--6--6-6-6-6-6--6-6-6-6-|--0--0-0-0-0-0--0-0-0-0-|


E S S S S E Q S S S S S S S S S S S S S S S S S S S S S S S S
-----------------------|--------------------------|--------------------------|
-----------------------|--------------------------|--------------------------|
-----------------------|--------------------------|--------------------------|
-----------------------|--------------------------|--------------------------|
--6----------6---------|--5-----------2-----------|--5-----------2-----------|
--6--6-6-6-6-6--14\----|----6-5-0-5-6---3-2-0-2-3-|----6-5-0-5-6---3-2-0-2-3-|


S S S S S S S S S S S S S S S S S S S S S E.
--------------------------|---------------------------|
--------------------------|---------------------------|
--------------------------|---------------------------|
--------------------------|---------------------------|
--5-----------2-----------|--5-----------2------------|
----6-5-0-5-6---3-2-0-2-3-|----6-5-0-5-6---3-2-<>3~---|


S S S S S S S S S S S S S S S S S S S S S S S S
--------------------------|--------------------------|
--------------------------|--------------------------|
--------------------------|--------------------------|
--------------------------|--------------------------|
--5-----------2-----------|--5-----------2-----------|
----6-5-0-5-6---3-2-0-2-3-|----6-5-0-5-6---3-2-0-2-3-|


PM PM
S S S S S S S S S S S S S S S S S S E S E S H.
--------------------------|------------------------|----------------|
--------------------------|------------------------|--8b------------|
--------------------------|------------------------|--5b------------|
--------------------------|------------------------|----------------|
--5-----------2-----------|--5-----2---------------|----------------|
----6-5-0-5-6---3-2-0-2-3-|----6-5---3-2-0----0----|----------------|


H. H. H. H. H.
---------------|---------------|---------------|---------------|---------------|
--L------------|--L------------|--L------------|--L------------|--L------------|
--L------------|--L------------|--L------------|--L------------|--L------------|
---------------|---------------|---------------|---------------|---------------|
---------------|---------------|---------------|---------------|---------------|
---------------|---------------|---------------|---------------|---------------|


S S S S S S S S S S S S S S S S S S Q.
--17-15----15-------------------------|-----------------------------|
--------18----18-17-18-17-15-17-15----|--15-------------------------|
-----------------------------------17-|-----17-16-17-16-14-14b------|
--------------------------------------|-----------------------------|
--------------------------------------|-----------------------------|
--------------------------------------|-----------------------------|


Pickslide
H. H. H. E. E. Q.
---------------|---------------|---------------|-----------------------|
---------------|---------------|---------------|-----------------------|
---------------|---------------|---------------|-----------------------|
--0------------|--3------------|--8------------|--7---x----------------|
--0------------|--3------------|--8------------|--7---x----------------|
--0------------|--3------------|--8------------|--7---x----------------|


H. H. H. S S S S S S S S S S S S
---------------|---------------|---------------|-----------------------------|
---------------|---------------|---------------|-----------------------------|
---------------|---------------|---------------|-----------------------------|
--0------------|--3------------|--8------------|-----------------7-7-7-7-7-7-|
--0------------|--3------------|--8------------|--7-7-7-10-10-10-------------|
--0------------|--3------------|--8------------|-----------------------------|


Q. E E E H Q Q. E. E.
--/13------13--13--13--|--12--------------|--------------------|
-----------------------|------------13----|--11------10---11---|
-----------------------|------------------|--------------------|
-----------------------|------------------|--------------------|
-----------------------|------------------|--------------------|
-----------------------|------------------|--------------------|


H. Q. Q. Q. Q.
-----------------|------------------|-------------------|
--13~------------|--12------13------|--13b------12------|
-----------------|------------------|-------------------|
-----------------|------------------|-------------------|
-----------------|------------------|-------------------|
-----------------|------------------|-------------------|


E S E S Q. H. H. H.
-------------------------|------------------|---------------|---------------|
--13--15-13--12-13\------|------------------|---------------|---------------|
-------------------------|------------------|---------------|---------------|
-------------------------|------------------|---------------|---------------|
-------------------------|------------------|---------------|---------------|
-------------------------|--7brb------------|--L------------|--L------------|


PM PM PM
S E E S S S Q. E. S S S S S S S S S S S S S S S S S S S S S
-----------------------|------------------------|--------------------------|
-----------------------|------------------------|--------------------------|
-----------------------|------------------------|--------------------------|
-----------------------|--0---------------------|--------------------6-6-6-|
--0-0--0--0-0-0-0------|--0---------------------|--------------------6-6-6-|
--0-0--0--0-0-0-0------|--0---0-0-0-0-0-0-0-0-0-|--0-0-0-0-0-0-0-0-0-6-6-6-|


E. S S S S S S S S S S S S S S S S S S S S S E. S S S S S S S S S
------------------------|--------------------------|------------------------|
------------------------|--------------------------|------------------------|
------------------------|--------------------------|------------------------|
--0---------------------|--------------6-6-6-6-5-6-|--0---------------------|
--0---------------------|--------------6-6-6-6-5-6-|--0---------------------|
--0---0---0-0-0-0-0-0-0-|--0-0-0-0-0-0-6-6-6-6-5-6-|--0---0-0-0-0-0-0-0-0-0-|


PM PM PM PM PM PM
S S S S S S S S S S S S E. S S S S S S S S S E E E E E E
--------------------------|------------------------|--------------------|
--------------------------|------------------------|--------------------|
--------------------------|------------------------|--------------------|
--------------------6-6-6-|--0---------------------|--------------------|
--------------------6-6-6-|--0---------------------|--0--0--0--0--0--0--|
--0-0-0-0-0-0-0-0-0-6-6-6-|--0---0---0-0-0-0-0-0-0-|--0--0--0--0--0--0--|


S S S S S S E. S S S S S S E. S S S E. S S S S S S E. S S S
------------------------|------------------------|------------------------|
------------------------|------------------------|------------------------|
------------------------|------------------------|------------------------|
--------------3---------|--------5---------------|--------------3---------|
--------------3---------|--------5---------------|--------------3---------|
--0-0-0-0-0-0-3---0-0-0-|--0-0-0-5---0-0-0-3b~---|--0-0-0-0-0-0-3---0-0-0-|


S S S E. S S S S S S S S S S S S E. S S S
----------------------------|---------------------------|
----------------------------|---------------------------|
----------------------------|---------------------------|
--------5-------------------|---------------------------|
--------5-----------0h-3h-5-|---------------------------|





D||------------------------|------------------------|------------------------|
A||------------------------|------------------------|------------------------|
F||------------------------|------------------------|------------------------|
C||--------------3---------|--------5---------------|--------------3---------|
G||--------------3---------|--------5---------------|--------------3---------|
C||--0-0-0-0-0-0-3---0-0-0-|--0-0-0-5---0-0-0-3b~---|--0-0-0-0-0-0-3---0-0-0-|


S S S E. S S S S S S S S S S S S E. S S S
----------------------------|---------------------------|
----------------------------|---------------------------|
----------------------------|---------------------------|
--------5-------------------|---------------------------|
--------5-----------0h-3h-5-|---------------------------|
--0-0-0-5---0h-3h-5---------|--0-0-0-0-0-0-<>3~---0-0-0-|


S S S E. S S S E. S S S S S S E. S S S S S S E. Q.
---------------------------|---------------------------|----------------------|
---------------------------|---------------------------|----------------------|
---------------------------|---------------------------|----------------------|
---------------------------|---------------------------|----------------------|
---------------------------|---------------------------|----------------------|
--0-0-0-<>5~---0-0-0-3b~---|--0-0-0-0-0-0-<>3~---0-0-0-|--0-0-0-<>5~---L------|


S S S S S S S S S S S S S S S S S S S S S S S S
---------------------------|---------------------------|
---------------------------|---------------------------|
---------------------------|---------------------------|
---------------------------|---------------------------|
---------------------------|---------------------------|
--0-0-0-0-0-0-3p-0-0-0-0-0-|--0-0-0-5p-0-0-0-0-0-3-2-3-|


S S S S S S S S S S S S S S S S S S S S S S S S
---------------------------|-------------------------------|
---------------------------|-------------------------------|
---------------------------|-------------------------------|
---------------------------|-------------------------------|
---------------------------|-----------------------0h-3h-5-|
--0-0-0-0-0-0-3p-0-0-0-0-0-|--0-0-0-5p-0-0-0h-3h-5---------|


S S S S S S S S S S S S S S S S S S S S S S S S
---------------------------|---------------------------|
---------------------------|---------------------------|
---------------------------|---------------------------|
---------------------------|---------------------------|
---------------------------|---------------------------|
--0-0-0-0-0-0-3p-0-0-0-0-0-|--0-0-0-5p-0-0-0-0-0-3-2-3-|


^
S S S S S S S S S S S S H S E. S S S S S S E. S S S
---------------------------|-----------------|------------------------|
---------------------------|-----------------|------------------------|
---------------------------|--5--------L-5---|------------------------|
---------------------------|--3--------L-3---|--------------3---------|
---------------------------|--3--------L-3---|--------------3---------|
--0-0-0-0-0-0-3p-0-0-0-0-0-|--3--------L-3---|--0-0-0-0-0-0-3---0-0-0-|


S S S E. S S S E. S S S S S S E. S S S S S S E. S S S S S S
------------------------|------------------------|----------------------------|
------------------------|------------------------|----------------------------|
------------------------|------------------------|----------------------------|
--------5---------------|--------------3---------|--------5-------------------|
--------5---------------|--------------3---------|--------5-----------0h-3h-5-|
--0-0-0-5---0-0-0-3b~---|--0-0-0-0-0-0-3---0-0-0-|--0-0-0-5---0h-3h-5---------|


S S S S S S E. S S S S S S E. S S S E. S S S S S S E. S S S
------------------------|------------------------|------------------------|
------------------------|------------------------|------------------------|
------------------------|------------------------|------------------------|
--------------3---------|--------5---------------|--------------3---------|
--------------3---------|--------5---------------|--------------3---------|
--0-0-0-0-0-0-3---0-0-0-|--0-0-0-5---0-0-0-3b~---|--0-0-0-0-0-0-3---0-0-0-|


S S S E. S S S S S S S S S S S S S S S S S S
----------------------------|---------------------------------|
----------------------------|---------------------------------|
----------------------------|---------------------------------|
--------5-------------------|---------------------------------|
--------5-----------0h-3h-5-|-----------------------12--------|
--0-0-0-5---0h-3h-5---------|--0-0-0-0-0-0-0-12h-15----15p-12-|


S S S S S S S S S S S S S S S S S S S S S S S S
----------------------------------------|---------------------------------|
----------------------------------------|---------------------------------|
----------------------------------------|---------------------------------|
----------------------------------------|---------------------------------|
-----------11-----------------10--------|-----------------------12--------|
--0-11h-14----14p-11-0-10h-13----13p-10-|--0-0-0-0-0-0-0-12h-15----15p-12-|


S S S S S S S S S S S S E. E. S S S S S S
----------------------------------------|-----------------------------|
----------------------------------------|-----------------------------|
----------------------------------------|-----------------------------|
----------------------------------------|-----------------------------|
-----------11-----------------10--------|--0---0------------12--------|
--0-11h-14----14p-11-0-10h-13----13p-10-|--0---0---0-12h-15----15p-12-|


S S S S S S S S S S S S E. E. S S S S S S
----------------------------------------|-----------------------------|
----------------------------------------|-----------------------------|
----------------------------------------|-----------------------------|
----------------------------------------|-----------------------------|
-----------11-----------------10--------|--0---0------------12--------|
--0-11h-14----14p-11-0-10h-13----13p-10-|--0---0---0-12h-15----15p-12-|


S S S S S S S S S E. E. S S S E. S S S
------------------------------------|-----------------------|
------------------------------------|-----------------------|
------------------------------------|-----------------------|
------------------------------------|--3---------3----------|
-----------11-----------------10\---|--3---------3----------|
--0-11h-14----14p-11-0-10h-13-------|--3---0-0-0-3---0-0-0S-|


E E E E E E E. S S S S S S S S S S S S S S S S S S S S S
--------------------|------------------------|--------------------------|
--------------------|------------------------|--------------------------|
--------------------|------------------------|--------------------------|
--8--8--8--7--7--7--|--0---------------------|--------------------6-6-6-|
--8--8--8--7--7--7--|--0---------------------|--------------------6-6-6-|
--8--8--8--7--7--7--|--0---0-0-0-0-0-0-0-0-0-|--0-0-0-0-0-0-0-0-0-6-6-6-|


E. S S S S S S S S S S S S S S S S S S S S S E. S S S S S S S S S
------------------------|--------------------------|------------------------|
------------------------|--------------------------|------------------------|
------------------------|--------------------------|------------------------|
--0---------------------|--------------6-6-6-6-5-6-|--0---------------------|
--0---------------------|--------------6-6-6-6-5-6-|--0---------------------|
--0---0---0-0-0-0-0-0-0-|--0-0-0-0-0-0-6-6-6-6-5-6-|--0---0-0-0-0-0-0-0-0-0-|


S S S S S S S S S S S S E. S S S S S S S S S H.
--------------------------|------------------------|---------------|
--------------------------|------------------------|---------------|
--------------------------|------------------------|--5------------|
--------------------6-6-6-|--0---------------------|--3------------|
--------------------6-6-6-|--0---------------------|--3------------|
--0-0-0-0-0-0-0-0-0-6-6-6-|--0---0---0-0-0-0-0-0-0-|--3------------|


S S S S S S E. S S S S S S E. S S S E. S S S S S S E. S S S
------------------------|------------------------|------------------------|
------------------------|------------------------|------------------------|
------------------------|------------------------|------------------------|
--------------3---------|--------5---------------|--------------3---------|
--------------3---------|--------5---------------|--------------3---------|
--0---0-0-0-0-3---0-0-0-|--0-0-0-5---0-0-0-3b~---|--0-0-0-0-0-0-3---0-0-0-|


S S S E. S S S S S S S S S S S S E. S S S S S S E. S S S E.
----------------------------|------------------------|------------------------|
----------------------------|------------------------|------------------------|
----------------------------|------------------------|------------------------|
--------5-------------------|--------------3---------|--------5---------------|
--------5-----------0h-3h-5-|--------------3---------|--------5---------------|
--0-0-0-5---0h-3h-5---------|--0-0-0-0-0-0-3---0-0-0-|--0-0-0-5---0-0-0-3b~---|


S S S S S S E. S S S S S S E. S S S S S S
---------------------------|----------------------------|
---------------------------|----------------------------|
---------------------------|----------------------------|
---------------------------|--------5-------------------|
---------------------------|--------5-----------0h-3h-5-|
--0-0-0-0-0-0-<>3~---0-0-0-|--0-0-0-5---0h-3h-5---------|


S S S S S S S S S S S S E. S S S S S S S S S S S S S S S S S S S S S
--------------------------|------------------------|--------------------------|
--------------------------|------------------------|--------------------------|
--------------------------|------------------------|--------------------------|
--------------------------|--0---------------------|--------------------6-6-6-|
--0-0-0-0---0---0---0---0-|--0---------------------|--------------------6-6-6-|
--0-0-0-0---0---0---0---0-|--0---0-0-0-0-0-0-0-0-0-|--0-0-0-0-0-0-0-0-0-6-6-6-|


E. S S S S S S S S S S S S S S S S S S S S S E. S S S S S S S S S
------------------------|--------------------------|------------------------|
------------------------|--------------------------|------------------------|
------------------------|--------------------------|------------------------|
--0---------------------|--------------6-6-6-6-5-6-|--0---------------------|
--0---------------------|--------------6-6-6-6-5-6-|--0---------------------|
--0---0---0-0-0-0-0-0-0-|--0-0-0-0-0-0-6-6-6-6-5-6-|--0---0-0-0-0-0-0-0-0-0-|


S S S S S S S S S S S S E. S S S S S S S S S H.
--------------------------|------------------------|---------------|
--------------------------|------------------------|---------------|
--------------------------|------------------------|--5------------|
--------------------6-6-6-|--0---------------------|--3------------|
--------------------6-6-6-|--0---------------------|--3------------|
--0-0-0-0-0-0-0-0-0-6-6-6-|--0---0---0-0-0-0-0-0-0-|--3------------|


S S S S S S E. S S S S S S E. S S S E. S S S S S S E. S S S
------------------------|------------------------|------------------------|
------------------------|------------------------|------------------------|
------------------------|------------------------|------------------------|
--------------3---------|--------5---------------|--------------3---------|
--------------3---------|--------5---------------|--------------3---------|
--0-0-0-0-0-0-3---0-0-0-|--0-0-0-5---0-0-0-3b~---|--0-0-0-0-0-0-3---0-0-0-|


S S S E. S S S S S S S S S S S S E. S S S S S S E. S S S E.
----------------------------|------------------------|------------------------|
----------------------------|------------------------|------------------------|
----------------------------|------------------------|------------------------|
--------5-------------------|--------------3---------|--------5---------------|
--------5-----------0h-3h-5-|--------------3---------|--------5---------------|
--0-0-0-5---0h-3h-5---------|--0-0-0-0-0-0-3---0-0-0-|--0-0-0-5---0-0-0-3b~---|


S S S S S S E. S S S S S S E. S S S S S S
---------------------------|----------------------------|
---------------------------|----------------------------|
---------------------------|----------------------------|
---------------------------|--------5-------------------|
---------------------------|--------5-----------0h-3h-5-|
--0-0-0-0-0-0-<>3~---0-0-0-|--0-0-0-5---0h-3h-5---------|


S S S S S S S S S S S S S S S S S S S S S S S S
---------------------------------|----------------------------------------|
---------------------------------|----------------------------------------|
---------------------------------|----------------------------------------|
---------------------------------|----------------------------------------|
-----------------------12--------|-----------11-----------------10--------|
--0-0-0-0-0-0-0-12h-15----15p-12-|--0-11h-14----14p-11-0-10h-13----13p-10-|


S S S S S S S S S S S S S S S S S S S S S S S S
---------------------------------|----------------------------------------|
---------------------------------|----------------------------------------|
---------------------------------|----------------------------------------|
---------------------------------|----------------------------------------|
-----------------------12--------|-----------11-----------------10--------|
--0-0-0-0-0-0-0-12h-15----15p-12-|--0-11h-14----14p-11-0-10h-13----13p-10-|


E. E. S S S S S S S S S S S S S S S S S S
-----------------------------|----------------------------------------|
-----------------------------|----------------------------------------|
-----------------------------|----------------------------------------|
-----------------------------|----------------------------------------|
--0---0------------12--------|-----------11-----------------10--------|
--0---0---0-12h-15----15p-12-|--0-11h-14----14p-11-0-10h-13----13p-10-|


E. E. S S S S S S S S S S S S S S S E.
-----------------------------|------------------------------------|
-----------------------------|------------------------------------|
-----------------------------|------------------------------------|
-----------------------------|------------------------------------|
--0---0------------12--------|-----------11-----------------10\---|
--0---0---0-12h-15----15p-12-|--0-11h-14----14p-11-0-10h-13-------|


E. S S S E. S S S E E E E E E H. H.
-----------------------|--------------------|---------------|---------------|
-----------------------|--------------------|---------------|---------------|
-----------------------|--------------------|---------------|---------------|
--3---------3----------|--8--8--8--7--7--7--|--0------------|--3------------|
--3---------3----------|--8--8--8--7--7--7--|--0------------|--3------------|
--3---0-0-0-3---0-0-0S-|--8--8--8--7--7--7--|--0------------|--3------------|


Pickslide
H. E. E. Q. H. H.
---------------|-----------------------|---------------|---------------|
---------------|-----------------------|---------------|---------------|
---------------|-----------------------|---------------|---------------|
--8------------|--7---x----------------|--0------------|--3------------|
--8------------|--7---x----------------|--0------------|--3------------|
--8------------|--7---x----------------|--0------------|--3------------|


H. E. E. E. E. H. H.
---------------|---------------------|---------------|---------------|
---------------|---------------------|---------------|---------------|
---------------|---------------------|---------------|---------------|
--8------------|--7------------------|--0------------|--3------------|
--8------------|--7------------------|--0------------|--3------------|
--8------------|--7---5---<>3~---2---|--0------------|--3------------|


H. H. Q. Q. Q. Q.
---------------|---------------|----------------|----------------|
---------------|---------------|----------------|----------------|
---------------|---------------|----------------|----------------|
--8------------|--7------------|--5------5------|--5------5------|
--8------------|--7------------|--5------5------|--5------5------|
--8------------|--7------------|--5------5------|--5------5------|


H. E. E. E. E. E S S S S E S S S S
---------------|---------------------|------------------------|
---------------|---------------------|------------------------|
---------------|---------------------|------------------------|
--7------------|--7------------------|------------------------|
--7------------|--7------------------|--0----------0----------|
--7------------|--7---5---<>3~---2---|--0--0-0-0-0-0--0-0-0-0-|


E S S S S E S S S S E S S S S E S S S S E S S S S E Q
------------------------|------------------------|-----------------------|
------------------------|------------------------|-----------------------|
------------------------|------------------------|-----------------------|
------------------------|------------------------|-----------------------|
--6----------6----------|--0----------0----------|--6----------6---------|
--6--6-6-6-6-6--6-6-6-6-|--0--0-0-0-0-0--0-0-0-0-|--6--6-6-6-6-6--14\----|


S S S S S S S S S S S S S S S S S S S S S S S S
--------------------------|--------------------------|
--------------------------|--------------------------|
--------------------------|--------------------------|
--------------------------|--------------------------|
--5-----------2-----------|--5-----------2-----------|
----6-5-0-5-6---3-2-0-2-3-|----6-5-0-5-6---3-2-0-2-3-|


S S S S S S S S S S S S S S S S S S S S S E.
--------------------------|---------------------------|
--------------------------|---------------------------|
--------------------------|---------------------------|
--------------------------|---------------------------|
--5-----------2-----------|--5-----------2------------|
----6-5-0-5-6---3-2-0-2-3-|----6-5-0-5-6---3-2-<>3~---|


S S S S S S S S S S S S S S S S S S S S S S S S
--------------------------|--------------------------|
--------------------------|--------------------------|
--------------------------|--------------------------|
--------------------------|--------------------------|
--5-----------2-----------|--5-----------2-----------|
----6-5-0-5-6---3-2-0-2-3-|----6-5-0-5-6---3-2-0-2-3-|


PM PM PM PM
S S S S S S S S S S S S S S S S S S E S E S E S S S S E S S S S
--------------------------|------------------------|------------------------|
--------------------------|------------------------|------------------------|
--------------------------|------------------------|------------------------|
--------------------------|------------------------|------------------------|
--5-----------2-----------|--5-----2---------------|------------------------|
----6-5-0-5-6---3-2-0-2-3-|----6-5---3-2-0----0----|--0--0-0-0-0-0--0-0-0-0-|


PM PM PM PM PM PM
E S S S S E S S S S E S S S S E S S S S E S S S S E S S S S
------------------------|------------------------|------------------------|
------------------------|------------------------|------------------------|
------------------------|------------------------|------------------------|
------------------------|------------------------|------------------------|
------------------------|------------------------|------------------------|
--0--0-0-0-0-0--0-0-0-0-|--0--0-0-0-0-0--0-0-0-0-|--0--0-0-0-0-0--0-0-0-0-|


W \1
E Q Q. H. S S S S S S S S S S S S
------------------|-----------------|--------------------------------------|
------------------|-----------------|--18-17-15-17-15----15----------------|
------------------|-----------------|-----------------17----17-16-17-16-14-|
-----13----L------|--13\------------|--------------------------------------|
------------------|-----------------|--------------------------------------|
--0---------------|-----------------|--------------------------------------|


S S S S S S Q. E. S S S E. S S S
-----------------------------|------------------------------|
-----------------------------|--15---15-15-15-15---15-15-15-|
--16-14----14----------------|------------------------------|
--------17----17-15-15b------|------------------------------|
-----------------------------|------------------------------|
-----------------------------|------------------------------|


E. S S S E. E. E. S S S E. S S S
---------------------------|------------------------------|
--13---13-13-13-13---------|--15---15-15-15-15---15-15-15-|
---------------------/14---|------------------------------|
---------------------------|------------------------------|
---------------------------|------------------------------|
---------------------------|------------------------------|


Pickslide
E. E. Q. E. S S S E. S S S
------------------------|-------------------------------|
--13--------------------|--15---15-15-15-15---15-15-15S-|
------------------------|-------------------------------|
-------x----------------|-------------------------------|
-------x----------------|-------------------------------|
-------x----------------|-------------------------------|


E. S S S E. E. E. S S S E. S S S H.
--------------------------|--------------------------------|-----------------|
--18---18-18-18-18--------|--15---15-15-15-15---15h-17p-15-|--14~------------|
---------------------14---|--------------------------------|-----------------|
--------------------------|--------------------------------|-----------------|
--------------------------|--------------------------------|-----------------|
--------------------------|--------------------------------|-----------------|


Q. E E E H Q Q. E. E.
-----------------------|------------------|--------------------|
--/15------15--15--15--|--13--------------|--------------------|
-----------------------|------------14----|--12------10---12---|
-----------------------|------------------|--------------------|
-----------------------|------------------|--------------------|
-----------------------|------------------|--------------------|


H. Q. Q. Q. Q.
-----------------|------------------|-------------------|
-----------------|------------------|-------------------|
--14~------------|--12------14------|--14b------12------|
-----------------|------------------|-------------------|
-----------------|------------------|-------------------|
-----------------|------------------|-------------------|


E S E S Q. H. H. H.
-------------------------|------------------|---------------|---------------|
-------------------------|------------------|---------------|---------------|
--14--16-14--12-14\------|------------------|---------------|---------------|
-------------------------|------------------|---------------|---------------|
-------------------------|------------------|---------------|---------------|
-------------------------|--7brb------------|--L------------|--L------------|


PM PM PM
S E E S S S Q. E. S S S S S S S S S S S S S S S S S S S S S
-----------------------|------------------------|--------------------------|
-----------------------|------------------------|--------------------------|
-----------------------|------------------------|--------------------------|
-----------------------|--0---------------------|--------------------6-6-6-|
--0-0--0--0-0-0-0------|--0---------------------|--------------------6-6-6-|
--0-0--0--0-0-0-0------|--0---0-0-0-0-0-0-0-0-0-|--0-0-0-0-0-0-0-0-0-6-6-6-|


E. S S S S S S S S S S S S S S S S S S S S S E. S S S S S S S S S
------------------------|--------------------------|------------------------|
------------------------|--------------------------|------------------------|
------------------------|--------------------------|------------------------|
--0---------------------|--------------6-6-6-6-5-6-|--0---------------------|
--0---------------------|--------------6-6-6-6-5-6-|--0---------------------|
--0---0---0-0-0-0-0-0-0-|--0-0-0-0-0-0-6-6-6-6-5-6-|--0---0-0-0-0-0-0-0-0-0-|


PM PM PM PM PM PM
S S S S S S S S S S S S E. S S S S S S S S S E E E E E E
--------------------------|------------------------|--------------------|
--------------------------|------------------------|--------------------|
--------------------------|------------------------|--------------------|
--------------------6-6-6-|--0---------------------|--------------------|
--------------------6-6-6-|--0---------------------|--0--0--0--0--0--0--|
--0-0-0-0-0-0-0-0-0-6-6-6-|--0---0---0-0-0-0-0-0-0-|--0--0--0--0--0--0--|


S S S S S S E. S S S S S S E. S S S E. S S S S S S E. S S S
------------------------|------------------------|------------------------|
------------------------|------------------------|------------------------|
------------------------|------------------------|------------------------|
--------------3---------|--------5---------------|--------------3---------|
--------------3---------|--------5---------------|--------------3---------|
--0-0-0-0-0-0-3---0-0-0-|--0-0-0-5---0-0-0-3b~---|--0-0-0-0-0-0-3---0-0-0-|


S S S E. S S S S S S S S S S S S E. S S S
----------------------------|---------------------------|
----------------------------|---------------------------|
----------------------------|---------------------------|
--------5-------------------|---------------------------|
--------5-----------0h-3h-5-|---------------------------|
--0-0-0-5---0h-3h-5---------|--0-0-0-0-0-0-<>3~---0-0-0-|


S S S E. S S S E. S S S S S S E. S S S S S S E. Q.
---------------------------|---------------------------|----------------------|
---------------------------|---------------------------|----------------------|
---------------------------|---------------------------|----------------------|
---------------------------|---------------------------|----------------------|
---------------------------|---------------------------|----------------------|
--0-0-0-<>5~---0-0-0-3b~---|--0-0-0-0-0-0-<>3~---0-0-0-|--0-0-0-<>5~---L------|


S S S S S S S S S S S S S S S S S S S S S S S S
---------------------------------|----------------------------------------|
---------------------------------|----------------------------------------|
---------------------------------|----------------------------------------|
---------------------------------|----------------------------------------|
-----------------------12--------|-----------11-----------------10--------|
--0-0-0-0-0-0-0-12h-15----15p-12-|--0-11h-14----14p-11-0-10h-13----13p-10-|


S S S S S S S S S S S S S S S S S S S S S S S S
---------------------------------|----------------------------------------|
---------------------------------|----------------------------------------|
---------------------------------|----------------------------------------|
---------------------------------|----------------------------------------|
-----------------------12--------|-----------11-----------------10--------|
--0-0-0-0-0-0-0-12h-15----15p-12-|--0-11h-14----14p-11-0-10h-13----13p-10-|


PM
E. E. S S S S S S S S S S S S S S S S S S
-----------------------------|----------------------------------------|
-----------------------------|----------------------------------------|
-----------------------------|----------------------------------------|
-----------------------------|----------------------------------------|
--0---0------------12--------|-----------11-----------------10--------|
--0---0---0-12h-15----15p-12-|--0-11h-14----14p-11-0-10h-13----13p-10-|


PM
E. E. S S S S S S S S S S S S S S S E.
-----------------------------|------------------------------------|
-----------------------------|------------------------------------|
-----------------------------|------------------------------------|
-----------------------------|------------------------------------|
--0---0------------12--------|-----------11-----------------10\---|
--0---0---0-12h-15----15p-12-|--0-11h-14----14p-11-0-10h-13-------|


E. S S S E. S S S E E E E E E E. S S S E. S S S
-----------------------|--------------------|----------------------|
-----------------------|--------------------|----------------------|
-----------------------|--------------------|----------------------|
--3---------3----------|--8--8--8--7--7--7--|--3---------3---------|
--3---------3----------|--8--8--8--7--7--7--|--3---------3---------|
--3---0-0-0-3---0-0-0S-|--8--8--8--7--7--7--|--3---0-0-0-3---0-0-0-|

[ Tab from: http://www.guitaretab.com/d/devin-townsend/148467.html ]
S S S S S S S S S S S S H. H. H.
--------------------------|---------------|---------------|---------------|
--------------------------|---------------|---------------|---------------|
--------------------------|---------------|---------------|---------------|
--------------7-7-7-5-5-5-|--0------------|--3------------|--8------------|
--8-8-8-7-7-7-------------|--0------------|--3------------|--8------------|
--------------------------|--0------------|--3------------|--8------------|


Q H H. H. H.
-------------------|---------------|---------------|---------------|
-------------------|---------------|---------------|---------------|
-------------------|---------------|---------------|---------------|
--7----------------|--0------------|--3------------|--8------------|
--7----------------|--0------------|--3------------|--8------------|
--7S----14S--------|--0------------|--3------------|--8------------|


E. E. E. E. Q. E E E H Q
---------------------|-----------------------|------------------|
---------------------|--/15------15--15--15--|--13--------------|
---------------------|-----------------------|------------14----|
--7------------------|-----------------------|------------------|
--7------------------|-----------------------|------------------|
--7---5---<>3~---2---|-----------------------|------------------|


PM PM
Q. E. E. E S E. E S E. Q. Q.
--------------------|--------------------------|----------------|
--------------------|--------------------------|----------------|
--12------10---12---|-------<>14--------<>14---|----------------|
--------------------|--------------------------|--5------5------|
--------------------|--0--0--------0--0--------|--5------5------|
--------------------|--------------------------|--5------5------|


Q. Q. Q H E. E. E. E.
----------------|-------------------|---------------------|
----------------|-------------------|---------------------|
----------------|-------------------|---------------------|
--5------5------|--7----------------|--7------------------|
--5------5------|--7----------------|--7------------------|
--5------5------|--7S----14S--------|--7---5---<>3~---2---|


E S S S S E S S S S E S S S S E S S S S E S S S S E S S S S
------------------------|------------------------|------------------------|
------------------------|------------------------|------------------------|
------------------------|------------------------|------------------------|
------------------------|------------------------|------------------------|
--0----------0----------|--6----------6----------|--0----------0----------|
--0--0-0-0-0-0--0-0-0-0-|--6--6-6-6-6-6--6-6-6-6-|--0--0-0-0-0-0--0-0-0-0-|


E S S S S E S S S S E S S S S E S S S S E S S S S E S S S S
------------------------|------------------------|------------------------|
------------------------|------------------------|------------------------|
------------------------|------------------------|------------------------|
------------------------|------------------------|------------------------|
--6----------6----------|--0----------0----------|--6----------6----------|
--6--6-6-6-6-6--6-6-6-6-|--0--0-0-0-0-0--0-0-0-0-|--6--6-6-6-6-6--6-6-6-6-|


Pickslide
PM PM
H. E E E E E E E. E. Q E. E. Q.
---------------|--------------------|--10----10---------|--12----12----L------|
---------------|--------------------|--13b---13b--------|--15b---15b---L------|
---------------|--------------------|-------------------|---------------------|
--x------------|--6--6--6--6--------|-------------------|---------------------|
--x------------|--6--6--6--6--6--6--|-------------------|---------------------|
--x------------|--6--6--6--6--6--6--|-------------------|---------------------|


H. H. Q H Q. E
--L------------|--L------------|--L----x--------|------------||
--L------------|--L------------|--L----x--------|------------||
---------------|---------------|----------------|------------||
---------------|---------------|----------------|------------||
---------------|---------------|----------------|------------||
---------------|---------------|----------------|---------0--||







Guitar 2

S S S S S S E. S S S S S S E. S S S E. S S S S S S E. S S S
D||------------------------|------------------------|------------------------|
A||------------------------|------------------------|------------------------|
F||------------------------|------------------------|------------------------|
C||--------------3---------|--------5---------------|--------------3---------|
G||--------------3---------|--------5---------------|--------------3---------|
C||--0-0-0-0-0-0-3---0-0-0-|--0-0-0-5---0-0-0-3b~---|--0-0-0-0-0-0-3---0-0-0-|


S S S E. S S S S S S S S S S S S E. S S S
----------------------------|---------------------------|
----------------------------|---------------------------|
----------------------------|---------------------------|
--------5-------------------|---------------------------|
--------5-----------0h-3h-5-|---------------------------|
--0-0-0-5---0h-3h-5---------|--0-0-0-0-0-0-<>3~---0-0-0-|


NH
S S S E. S S S E. S S S S S S E. S S S S S S E. Q.
---------------------------|---------------------------|---------------------|
---------------------------|---------------------------|---------------------|
---------------------------|---------------------------|--------<>7---L------|
---------------------------|---------------------------|---------------------|
---------------------------|---------------------------|---------------------|
--0-0-0-<>5~---0-0-0-3b~---|--0-0-0-0-0-0-<>3~---0-0-0-|--0-0-0--------------|


S S S S S S S S S S S S S S S S S S S S S S S S
---------------------------|---------------------------|
---------------------------|---------------------------|
---------------------------|---------------------------|
---------------------------|---------------------------|
---------------------------|---------------------------|
--0-0-0-0-0-0-3p-0-0-0-0-0-|--0-0-0-5p-0-0-0-0-0-3-2-3-|


S S S S S S S S S S S S S S S S S S S S S S S S
---------------------------|-------------------------------|
---------------------------|-------------------------------|
---------------------------|-------------------------------|
---------------------------|-------------------------------|
---------------------------|-----------------------0h-3h-5-|
--0-0-0-0-0-0-3p-0-0-0-0-0-|--0-0-0-5p-0-0-0h-3h-5---------|


S S S S S S S S S S S S S S S S S S S S S S S S
---------------------------|---------------------------|
---------------------------|---------------------------|
---------------------------|---------------------------|
---------------------------|---------------------------|
---------------------------|---------------------------|
--0-0-0-0-0-0-3p-0-0-0-0-0-|--0-0-0-5p-0-0-0-0-0-3-2-3-|


^
S S S S S S S S S S S S H S E. S S S S S S E. S S S
---------------------------|-----------------|------------------------|
---------------------------|-----------------|------------------------|
---------------------------|--5--------L-5---|------------------------|
---------------------------|--3--------L-3---|--------------3---------|
---------------------------|--3--------L-3---|--------------3---------|
--0-0-0-0-0-0-3p-0-0-0-0-0-|--3--------L-3---|--0-0-0-0-0-0-3---0-0-0-|


S S S E. S S S E. S S S S S S E. S S S S S S E. S S S S S S
------------------------|------------------------|----------------------------|
------------------------|------------------------|----------------------------|
------------------------|------------------------|----------------------------|
--------5---------------|--------------3---------|--------5-------------------|
--------5---------------|--------------3---------|--------5-----------0h-3h-5-|
--0-0-0-5---0-0-0-3b~---|--0-0-0-0-0-0-3---0-0-0-|--0-0-0-5---0h-3h-5---------|


S S S S S S E. S S S S S S E. S S S E. S S S S S S E. S S S
------------------------|------------------------|------------------------|
------------------------|------------------------|------------------------|
------------------------|------------------------|------------------------|
--------------3---------|--------5---------------|--------------3---------|
--------------3---------|--------5---------------|--------------3---------|
--0-0-0-0-0-0-3---0-0-0-|--0-0-0-5---0-0-0-3b~---|--0-0-0-0-0-0-3---0-0-0-|


S S S E. S S S S S S S S S S S S S S S S S S
----------------------------|---------------------------------|
----------------------------|---------------------------------|
----------------------------|---------------------------------|
--------5-------------------|---------------------------------|
--------5-----------0h-3h-5-|-----------------------12--------|
--0-0-0-5---0h-3h-5---------|--0-0-0-0-0-0-0-12h-15----15p-12-|


S S S S S S S S S S S S S S S S S S S S S S S S
----------------------------------------|---------------------------------|
----------------------------------------|---------------------------------|
----------------------------------------|---------------------------------|
----------------------------------------|---------------------------------|
-----------11-----------------10--------|-----------------------12--------|
--0-11h-14----14p-11-0-10h-13----13p-10-|--0-0-0-0-0-0-0-12h-15----15p-12-|


S S S S S S S S S S S S E. E. S S S S S S
----------------------------------------|---------------------------|
----------------------------------------|---------------------------|
----------------------------------------|---------------------------|
----------------------------------------|------------------10-------|
-----------11-----------------10--------|--0---0-----8h-12----12p-8-|
--0-11h-14----14p-11-0-10h-13----13p-10-|--0---0---0----------------|


S S S S S S S S S S S S E. E. S S S S S S
----------------------------------|---------------------------|
----------------------------------|---------------------------|
----------------------------------|---------------------------|
----------9---------------8-------|------------------10-------|
----7h-11---11p-7---6h-10---10p-6-|--0---0-----8h-12----12p-8-|
--0---------------0---------------|--0---0---0----------------|


S S S S S S S S S E. E. S S S E. S S S E E E E E E
-------------------------------|-----------------------|--------------------|
-------------------------------|-----------------------|--------------------|
-------------------------------|-----------------------|--------------------|
----------9---------------8\---|--3---------3----------|--8--8--8--7--7--7--|
----7h-11---11p-7---6h-10------|--3---------3----------|--8--8--8--7--7--7--|
--0---------------0------------|--3---0-0-0-3---0-0-0S-|--8--8--8--7--7--7--|


E. S S S S S S S S S S S S S S S S S S S S S E. S S S S S S S S S
------------------------|--------------------------|------------------------|
------------------------|--------------------------|------------------------|
------------------------|--------------------------|------------------------|
--0---------------------|--------------------6-6-6-|--0---------------------|
--0---------------------|--------------------6-6-6-|--0---------------------|
--0---0-0-0-0-0-0-0-0-0-|--0-0-0-0-0-0-0-0-0-6-6-6-|--0---0---0-0-0-0-0-0-0-|


S S S S S S S S S S S S E. S S S S S S S S S S S S S S S S S S S S S
--------------------------|------------------------|--------------------------|
--------------------------|------------------------|--------------------------|
--------------------------|------------------------|--------------------------|
--------------6-6-6-6-5-6-|--0---------------------|--------------------6-6-6-|
--------------6-6-6-6-5-6-|--0---------------------|--------------------6-6-6-|
--0-0-0-0-0-0-6-6-6-6-5-6-|--0---0-0-0-0-0-0-0-0-0-|--0-0-0-0-0-0-0-0-0-6-6-6-|


E. S S S S S S S S S H. S S S S S S E. S S S
------------------------|---------------|------------------------|
------------------------|---------------|------------------------|
------------------------|--5------------|------------------------|
--0---------------------|--3------------|--------------3---------|
--0---------------------|--3------------|--------------3---------|
--0---0---0-0-0-0-0-0-0-|--3------------|--0---0-0-0-0-3---0-0-0-|


S S S E. S S S E. S S S S S S E. S S S S S S E. S S S S S S
------------------------|------------------------|----------------------------|
------------------------|------------------------|----------------------------|
------------------------|------------------------|----------------------------|
--------5---------------|--------------3---------|--------5-------------------|
--------5---------------|--------------3---------|--------5-----------0h-3h-5-|
--0-0-0-5---0-0-0-3b~---|--0-0-0-0-0-0-3---0-0-0-|--0-0-0-5---0h-3h-5---------|


S S S S S S E. S S S S S S E. S S S E. S S S S S S E. S S S
------------------------|------------------------|---------------------------|
------------------------|------------------------|---------------------------|
------------------------|------------------------|---------------------------|
--------------3---------|--------5---------------|---------------------------|
--------------3---------|--------5---------------|---------------------------|
--0-0-0-0-0-0-3---0-0-0-|--0-0-0-5---0-0-0-3b~---|--0-0-0-0-0-0-<>3~---0-0-0-|


S S S E. S S S S S S S S S S S S S S S S S S
----------------------------|--------------------------|
----------------------------|--------------------------|
----------------------------|--------------------------|
--------5-------------------|--------------------------|
--------5-----------0h-3h-5-|--0-0-0-0---0---0---0---0-|
--0-0-0-5---0h-3h-5---------|--0-0-0-0---0---0---0---0-|


E. S S S S S S S S S S S S S S S S S S S S S E. S S S S S S S S S
------------------------|--------------------------|------------------------|
------------------------|--------------------------|------------------------|
------------------------|--------------------------|------------------------|
--0---------------------|--------------------6-6-6-|--0---------------------|
--0---------------------|--------------------6-6-6-|--0---------------------|
--0---0-0-0-0-0-0-0-0-0-|--0-0-0-0-0-0-0-0-0-6-6-6-|--0---0---0-0-0-0-0-0-0-|


S S S S S S S S S S S S E. S S S S S S S S S S S S S S S S S S S S S
--------------------------|------------------------|--------------------------|
--------------------------|------------------------|--------------------------|
--------------------------|------------------------|--------------------------|
--------------6-6-6-6-5-6-|--0---------------------|--------------------6-6-6-|
--------------6-6-6-6-5-6-|--0---------------------|--------------------6-6-6-|
--0-0-0-0-0-0-6-6-6-6-5-6-|--0---0-0-0-0-0-0-0-0-0-|--0-0-0-0-0-0-0-0-0-6-6-6-|


E. S S S S S S S S S H. S S S S S S E. S S S
------------------------|---------------|------------------------|
------------------------|---------------|------------------------|
------------------------|--5------------|------------------------|
--0---------------------|--3------------|--------------3---------|
--0---------------------|--3------------|--------------3---------|
--0---0---0-0-0-0-0-0-0-|--3------------|--0-0-0-0-0-0-3---0-0-0-|


S S S E. S S S E. S S S S S S E. S S S S S S E. S S S S S S
------------------------|------------------------|----------------------------|
------------------------|------------------------|----------------------------|
------------------------|------------------------|----------------------------|
--------5---------------|--------------3---------|--------5-------------------|
--------5---------------|--------------3---------|--------5-----------0h-3h-5-|
--0-0-0-5---0-0-0-3b~---|--0-0-0-0-0-0-3---0-0-0-|--0-0-0-5---0h-3h-5---------|


S S S S S S E. S S S S S S E. S S S E. S S S S S S E. S S S
------------------------|------------------------|---------------------------|
------------------------|------------------------|---------------------------|
------------------------|------------------------|---------------------------|
--------------3---------|--------5---------------|---------------------------|
--------------3---------|--------5---------------|---------------------------|
--0-0-0-0-0-0-3---0-0-0-|--0-0-0-5---0-0-0-3b~---|--0-0-0-0-0-0-<>3~---0-0-0-|


S S S E. S S S S S S S S S S S S S S S S S S
----------------------------|---------------------------------|
----------------------------|---------------------------------|
----------------------------|---------------------------------|
--------5-------------------|---------------------------------|
--------5-----------0h-3h-5-|-----------------------12--------|
--0-0-0-5---0h-3h-5---------|--0-0-0-0-0-0-0-12h-15----15p-12-|


S S S S S S S S S S S S S S S S S S S S S S S S
----------------------------------------|---------------------------------|
----------------------------------------|---------------------------------|
----------------------------------------|---------------------------------|
----------------------------------------|---------------------------------|
-----------11-----------------10--------|-----------------------12--------|
--0-11h-14----14p-11-0-10h-13----13p-10-|--0-0-0-0-0-0-0-12h-15----15p-12-|


S S S S S S S S S S S S E. E. S S S S S S
----------------------------------------|---------------------------|
----------------------------------------|---------------------------|
----------------------------------------|---------------------------|
----------------------------------------|------------------10-------|
-----------11-----------------10--------|--0---0-----8h-12----12p-8-|
--0-11h-14----14p-11-0-10h-13----13p-10-|--0---0---0----------------|


S S S S S S S S S S S S E. E. S S S S S S
----------------------------------|---------------------------|
----------------------------------|---------------------------|
----------------------------------|---------------------------|
----------9---------------8-------|------------------10-------|
----7h-11---11p-7---6h-10---10p-6-|--0---0-----8h-12----12p-8-|
--0---------------0---------------|--0---0---0----------------|


S S S S S S S S S E. E. S S S E. S S S E E E E E E
-------------------------------|-----------------------|--------------------|
-------------------------------|-----------------------|--------------------|
-------------------------------|-----------------------|--------------------|
----------9---------------8\---|--3---------3----------|--8--8--8--7--7--7--|
----7h-11---11p-7---6h-10------|--3---------3----------|--8--8--8--7--7--7--|
--0---------------0------------|--3---0-0-0-3---0-0-0S-|--8--8--8--7--7--7--|


Pickslide
H. H. H. E. E. Q.
---------------|---------------|---------------|-----------------------|
---------------|---------------|---------------|-----------------------|
---------------|---------------|---------------|-----------------------|
--0------------|--3------------|--8------------|--7---x----------------|
--0------------|--3------------|--8------------|--7---x----------------|
--0------------|--3------------|--8------------|--7---x----------------|


H. H. H. E. E. E. E.
---------------|---------------|---------------|------------------|
---------------|---------------|---------------|------------------|
---------------|---------------|---------------|------------------|
--0------------|--3------------|--8------------|--7---------------|
--0------------|--3------------|--8------------|--7---------------|
--0------------|--3------------|--8------------|--7---5---3---2---|


H. H. H. H.
---------------|---------------|---------------|---------------|
---------------|---------------|---------------|---------------|
---------------|---------------|---------------|---------------|
--0------------|--3------------|--8------------|--7------------|
--0------------|--3------------|--8------------|--7------------|
--0------------|--3------------|--8------------|--7------------|


Q. Q. Q. Q. H. E. E. E. E.
----------------|----------------|---------------|---------------------|
----------------|----------------|---------------|---------------------|
----------------|----------------|---------------|---------------------|
--5------5------|--5------5------|--7------------|--7------------------|
--5------5------|--5------5------|--7------------|--7------------------|
--5------5------|--5------5------|--7------------|--7---5---<>3~---2---|


E S S S S E S S S S E S S S S E S S S S E S S S S E S S S S
------------------------|------------------------|------------------------|
------------------------|------------------------|------------------------|
------------------------|------------------------|------------------------|
------------------------|------------------------|------------------------|
--0----------0----------|--6----------6----------|--0----------0----------|
--0--0-0-0-0-0--0-0-0-0-|--6--6-6-6-6-6--6-6-6-6-|--0--0-0-0-0-0--0-0-0-0-|


E S S S S E Q S S S S S S S S S S S S S S S S S S S S S S S S
-----------------------|--------------------------|--------------------------|
-----------------------|--------------------------|--------------------------|
-----------------------|--------------------------|--------------------------|
-----------------------|--------------------------|--------------------------|
--6----------6---------|--5-----------2-----------|--5-----------2-----------|
--6--6-6-6-6-6--14\----|----6-5-0-5-6---3-2-0-2-3-|----6-5-0-5-6---3-2-0-2-3-|


S S S S S S S S S S S S S S S S S S S S S E.
--------------------------|---------------------------|
--------------------------|---------------------------|
--------------------------|---------------------------|
--------------------------|---------------------------|
--5-----------2-----------|--5-----------2------------|
----6-5-0-5-6---3-2-0-2-3-|----6-5-0-5-6---3-2-<>3~---|


S S S S S S S S S S S S S S S S S S S S S S S S
--------------------------|--------------------------|
--------------------------|--------------------------|
--------------------------|--------------------------|
--------------------------|--------------------------|
--5-----------2-----------|--5-----------2-----------|
----6-5-0-5-6---3-2-0-2-3-|----6-5-0-5-6---3-2-0-2-3-|


PM PM
S S S S S S S S S S S S S S S S S S E S E S H.
--------------------------|------------------------|----------------|
--------------------------|------------------------|--8b------------|
--------------------------|------------------------|--5b------------|
--------------------------|------------------------|----------------|
--5-----------2-----------|--5-----2---------------|----------------|
----6-5-0-5-6---3-2-0-2-3-|----6-5---3-2-0----0----|----------------|


H. H. H. H. H.
---------------|---------------|---------------|---------------|---------------|
--L------------|--L------------|--L------------|--L------------|--L------------|
--L------------|--L------------|--L------------|--L------------|--L------------|
---------------|---------------|---------------|---------------|---------------|
---------------|---------------|---------------|---------------|---------------|
---------------|---------------|---------------|---------------|---------------|


S S S S S S S S S S S S S S S S S S Q.
--17-15----15-------------------------|-----------------------------|
--------18----18-17-18-17-15-17-15----|--15-------------------------|
-----------------------------------17-|-----17-16-17-16-14-14b------|
--------------------------------------|-----------------------------|
--------------------------------------|-----------------------------|
--------------------------------------|-----------------------------|


Pickslide
H. H. H. E. E. Q.
---------------|---------------|---------------|-----------------------|
---------------|---------------|---------------|-----------------------|
---------------|---------------|---------------|-----------------------|
--0------------|--3------------|--8------------|--7---x----------------|
--0------------|--3------------|--8------------|--7---x----------------|
--0------------|--3------------|--8------------|--7---x----------------|


H. H. H. S S S S S S S S S S S S
---------------|---------------|---------------|-----------------------------|
---------------|---------------|---------------|-----------------------------|
---------------|---------------|---------------|-----------------------------|
--0------------|--3------------|--8------------|-----------------7-7-7-7-7-7-|
--0------------|--3------------|--8------------|--7-7-7-10-10-10-------------|
--0------------|--3------------|--8------------|-----------------------------|


Q. E E E H Q Q. E. E.
--/13------13--13--13--|--12--------------|--------------------|
-----------------------|------------13----|--11------10---11---|
-----------------------|------------------|--------------------|
-----------------------|------------------|--------------------|
-----------------------|------------------|--------------------|
-----------------------|------------------|--------------------|


H. Q. Q. Q. Q.
-----------------|------------------|-------------------|
--13~------------|--12------13------|--13b------12------|
-----------------|------------------|-------------------|
-----------------|------------------|-------------------|
-----------------|------------------|-------------------|
-----------------|------------------|-------------------|


E S E S Q. H. H. H.
-------------------------|------------------|---------------|---------------|
--13--15-13--12-13\------|------------------|---------------|---------------|
-------------------------|------------------|---------------|---------------|
-------------------------|------------------|---------------|---------------|
-------------------------|------------------|---------------|---------------|
-------------------------|--7brb------------|--L------------|--L------------|


PM PM PM
S E E S S S Q. E. S S S S S S S S S S S S S S S S S S S S S
-----------------------|------------------------|--------------------------|
-----------------------|------------------------|--------------------------|
-----------------------|------------------------|--------------------------|
-----------------------|--0---------------------|--------------------6-6-6-|
--0-0--0--0-0-0-0------|--0---------------------|--------------------6-6-6-|
--0-0--0--0-0-0-0------|--0---0-0-0-0-0-0-0-0-0-|--0-0-0-0-0-0-0-0-0-6-6-6-|


E. S S S S S S S S S S S S S S S S S S S S S E. S S S S S S S S S
------------------------|--------------------------|------------------------|
------------------------|--------------------------|------------------------|
------------------------|--------------------------|------------------------|
--0---------------------|--------------6-6-6-6-5-6-|--0---------------------|
--0---------------------|--------------6-6-6-6-5-6-|--0---------------------|
--0---0---0-0-0-0-0-0-0-|--0-0-0-0-0-0-6-6-6-6-5-6-|--0---0-0-0-0-0-0-0-0-0-|


PM PM PM PM PM PM
S S S S S S S S S S S S E. S S S S S S S S S E E E E E E
--------------------------|------------------------|--------------------|
--------------------------|------------------------|--------------------|
--------------------------|------------------------|--------------------|
--------------------6-6-6-|--0---------------------|--------------------|
--------------------6-6-6-|--0---------------------|--0--0--0--0--0--0--|
--0-0-0-0-0-0-0-0-0-6-6-6-|--0---0---0-0-0-0-0-0-0-|--0--0--0--0--0--0--|


S S S S S S E. S S S S S S E. S S S E. S S S S S S E. S S S
------------------------|------------------------|------------------------|
------------------------|------------------------|------------------------|
------------------------|------------------------|------------------------|
--------------3---------|--------5---------------|--------------3---------|
--------------3---------|--------5---------------|--------------3---------|
--0-0-0-0-0-0-3---0-0-0-|--0-0-0-5---0-0-0-3b~---|--0-0-0-0-0-0-3---0-0-0-|


S S S E. S S S S S S S S S S S S E. S S S
----------------------------|---------------------------|
----------------------------|---------------------------|
----------------------------|---------------------------|
--------5-------------------|---------------------------|
--------5-----------0h-3h-5-|---------------------------|





 
»
Tvoje obľúbené položky
Tvoje obľúbené položky
»
Najnovšie videá
Najnovšie videá

Strapping Young Lad - For Those Aboot To

Strapping Young Lad - "Far Beyond Metal"

Far Beyond Metal(live in australia)

Strapping Young Lad - Far Beyond Metal

Strapping Young Lad - Far Beyond Metal g

Strapping Young Lad - Far Beyond Metal

»
Najnavštevovanejšie piesne
Najnavštevovanejšie piesne
Canada - text

Life - text

Night - text

Hide Nowhere - text

Voices In The Fan - text

Greetings - text

Regulator - text

Funeral - text

Bastard - text

Christeen - text

Om - text

Bad Devil - text

Unity - text

Ocean Machine - text

L. A. - text

Red Tomorrow - text

Olives - text

Random Analysis - text

Vampira - text

Ziltoidia Attax - text

viac

»
Nové albumy interpreta
Nové albumy interpreta
7xVINYL Devin Townsend Project Eras - vinyl collection.. [vinyl]
7xVINYL Eras -
vinyl
collection
.. [vinyl]
5xCD Townsend Devin Original album collection // discovering devin townsend -ltd-
5xCD Original
album
collection
//
discoverin
g devin
townsend
-ltd-
CD Townsend Devin Deconstruction
CD Deconstruc
tion
CD Devin Townsend Project Ghost
CD Ghost
CD Townsend Devin -project- Ki
CD Ki
CD Townsend Devin Presents:ziltoid the omni
CD Presents:z
iltoid the
omni



home | interpreti | register piesní | cd & dvd shop | pripomienky/nápady | kontakt | ochrana údajov | inzercia

TOPlist