The Wallflowers

piesne (136)

  texty (103) / preklady (0)
  akordy (44) / taby (33)
  noty (0) / slideshow (0)

články (0)
fotogaléria
diskusia
videá
diskografia
v obchode
odkazy
koncerty
sťahuj



pridaj vlastný článok




 

The Wallflowers

Fanúšikov: 0



A B C Č D E F G H CH I J K L Ľ M N O P Q R S Š T U V W X Y Z Ž



ako:
The Wallflowers - Empire Of My Mind
The Wallflowers - Empire Of My Mind

tlač

edituj
Rok vzniku: 2000
Pesničku videlo 2116 návštevníkov.

Kvalita tabov : bez hodnotenia
Hodnotilo ľudí: 0 ohodnoť aj ty
Prispievateľ:

Diwa Swina
Autor hudby: Wallflowers
standard tuning
capo on 7th fret
chords relative to capo


INTRO

e-|0---0-0-0-0-0-0---0---0-0-0-0-0-|0---0-0-0-0-0-0---0---0-0-0-0-0-|
b-|1---1-1-1-1-1-1---1---1-1-1-1-1-|1---1-1-1-1-1-1---1---1-1-1-1-1-|
g-|2---2-2-2-2-2-2---2---2-2-2-2-2-|2---2-2-2-2-2-2---2---2-2-2-2-2-|
d-|2---2-2-2-2-2-3---3---3-3-3-3-3-|2---2-2-2-2-2-3---3---3-3-3-3-3-|
a-|0---0-0-0-0-0-0---0---0-0-0-0-0-|0---0-0-0-0-0-0---0---0-0-0-0-0-|
E-|--------------------------------|--------------------------------|
^ ^ ^ ^ ^ ^ ^ ^ ^ ^ ^ ^ ^ ^ ^ ^
1 2 3 4 1 2 3 4


VERSES 1 and 2

e-|0---0-0-0-0-0-0---0---0-0-0-0-0-|0---0-0-0-0-0-0---0---0-0-0-0-0-|
b-|1---1-1-1-1-1-1---1---1-1-1-1-1-|1---1-1-1-1-1-1---1---1-1-1-1-1-|
g-|2---2-2-2-2-2-2---2---2-2-0-0-0-|2---2-2-2-2-2-2---2---2-2-0-0-0-|
d-|2---2-2-2-2-2-2---2---2-2-0-0-0-|3---3-3-3-3-3-3---3---3-3-3-3-3-|
a-|0---0-0-0-0-0-0---0---0-0-0-0-0-|3---3-3-3-3-3-3---3---3-3-3-3-3-|
E-|--------------------------------|--------------------------------|
^ ^ ^ ^ ^ ^ ^ ^ ^ ^ ^ ^ ^ ^ ^ ^
1 2 3 4 1 2 3 4


e-|0---0-0-0-0-0-0---0---0-0-0-0-0-|0---0-0-0-0-0-0---0---0-0-0-0-0-|
b-|1---1-1-1-1-1-1---1---1-1-1-1-1-|1---1-1-1-1-1-1---1---1-1-1-1-1-|
g-|0---0-0-0-0-0-0---0---0-0-0-0-0-|2---2-2-2-2-2-2---2---2-2-2-2-0-|
d-|2---2-2-2-2-2-2---2---2-0-0-0-0-|3---3-3-3-3-3-3---3---3-3-3-3-0-|
a-|3---3-3-3-3-3-3---3---3-3-3-3-3-|3---3-3-3-3-3-3---3---3-3-3-3---|
E-|--------------------------------|--------------------------------|
^ ^ ^ ^ ^ ^ ^ ^ ^ ^ ^ ^ ^ ^ ^ ^
1 2 3 4 1 2 3 4


e-|0---0-0-0-0-0-0---0---0-0-0-0-0-|0---0-0-0-0-0-0---0---0-0-0-0-0-|
b-|1---1-1-1-1-1-1---1---1-1-1-1-1-|1---1-1-1-1-1-1---1---1-1-1-1-1-|
g-|2---2-2-2-2-2-2---2---2-2-0-0-0-|2---2-2-2-2-2-2---2---2-2-0-0-0-|
d-|2---2-2-2-2-2-2---2---2-2-0-0-0-|3---3-3-3-3-3-3---3---3-3-3-3-3-|
a-|0---0-0-0-0-0-0---0---0-0-0-0-0-|3---3-3-3-3-3-3---3---3-3-3-3-3-|
E-|--------------------------------|--------------------------------|
^ ^ ^ ^ ^ ^ ^ ^ ^ ^ ^ ^ ^ ^ ^ ^
1 2 3 4 1 2 3 4


e-|0---0-0-0-0-0-0---0---0-0-0-0-0-|0---0-0-0-0-0-0---0---0-0-0-0-0-|
b-|1---1-1-1-1-1-1---1---1-1-1-1-1-|1---1-1-1-1-1-1---1---1-1-1-1-1-|
g-|0---0-0-0-0-0-0---0---0-0-0-0-0-|2---2-2-2-2-2-0---0---0-0-0-0-0-|
d-|2---2-2-2-2-2-2---2---2-2-0-0-0-|3---3-3-3-3-3-2---2---2-2-0-0-0-|
a-|3---3-3-3-3-3-3---3---3-3-3-3-3-|3---3-3-3-3-3-3---3---3-3-3-3-3-|
E-|--------------------------------|--------------------------------|
^ ^ ^ ^ ^ ^ ^ ^ ^ ^ ^ ^ ^ ^ ^ ^
1 2 3 4 1 2 3 4


e-|1---1-1-1-1-1-1---1---1-1-1-1-1-|
b-|3---3-3-3-3-3-3---3---3-3-3-3-3-|
g-|2---2-2-2-2-2-0---0---0-0-0-0-0-|
d-|0---0-0-0-0-0-0---0---0-0-0-0-0-|
a-|0---0-0-0-0-0-2---2---2-2-2-2-2-|
E-|--------------3---3---3-3-3-3-3-|
^ ^ ^ ^ ^ ^ ^ ^
1 2 3 4


VERSES 3 and 4
[ Tab from: http://www.guitaretab.com/w/wallflowers/31333.html ]
e-|0---0-0-0-0-0-0---0---0-0-0-0-0-|0---0-0-0-0-0-0---0---0-0-0-0-0-|
b-|1---1-1-1-1-1-1---1---1-1-1-1-1-|1---1-1-1-1-1-1---1---1-1-1-1-1-|
g-|2---2-2-2-2-2-2---2---2-2-0-0-0-|2---2-2-2-2-2-2---2---2-2-0-0-0-|
d-|2---2-2-2-2-2-2---2---2-2-0-0-0-|3---3-3-3-3-3-3---3---3-3-3-3-3-|
a-|0---0-0-0-0-0-0---0---0-0-0-0-0-|3---3-3-3-3-3-3---3---3-3-3-3-3-|
E-|--------------------------------|--------------------------------|
^ ^ ^ ^ ^ ^ ^ ^ ^ ^ ^ ^ ^ ^ ^ ^
1 2 3 4 1 2 3 4


e-|0---0-0-0-0-0-0---0---0-0-0-0-0-|0---0-0-0-0-0-0---0---0-0-0-0-0-|
b-|1---1-1-1-1-1-1---1---1-1-1-1-1-|1---1-1-1-1-1-1---1---1-1-1-1-1-|
g-|0---0-0-0-0-0-0---0---0-0-0-0-0-|2---2-2-2-2-2-2---2---2-2-2-2-0-|
d-|2---2-2-2-2-2-2---2---2-0-0-0-0-|3---3-3-3-3-3-3---3---3-3-3-3-0-|
a-|3---3-3-3-3-3-3---3---3-3-3-3-3-|3---3-3-3-3-3-3---3---3-3-3-3---|
E-|--------------------------------|--------------------------------|
^ ^ ^ ^ ^ ^ ^ ^ ^ ^ ^ ^ ^ ^ ^ ^
1 2 3 4 1 2 3 4


e-|0---0-0-0-0-0-0---0---0-0-0-0-0-|0---0-0-0-0-0-0---0---0-0-0-0-0-|
b-|1---1-1-1-1-1-1---1---1-1-1-1-1-|1---1-1-1-1-1-1---1---1-1-1-1-1-|
g-|2---2-2-2-2-2-2---2---2-2-0-0-0-|2---2-2-2-2-2-2---2---2-2-0-0-0-|
d-|2---2-2-2-2-2-2---2---2-2-0-0-0-|3---3-3-3-3-3-3---3---3-3-3-3-3-|
a-|0---0-0-0-0-0-0---0---0-0-0-0-0-|3---3-3-3-3-3-3---3---3-3-3-3-3-|
E-|--------------------------------|--------------------------------|
^ ^ ^ ^ ^ ^ ^ ^ ^ ^ ^ ^ ^ ^ ^ ^
1 2 3 4 1 2 3 4


e-|0---0-0-0-0-0-0---0---0-0-0-0-0-|0---0-0-0-0-0-0---0---0-0-0-0-0-|
b-|1---1-1-1-1-1-1---1---1-1-1-1-1-|1---1-1-1-1-1-1---1---1-1-1-1-1-|
g-|0---0-0-0-0-0-0---0---0-0-0-0-0-|2---2-2-2-2-2-0---0---0-0-0-0-0-|
d-|2---2-2-2-2-2-2---2---2-2-0-0-0-|3---3-3-3-3-3-2---2---2-2-0-0-0-|
a-|3---3-3-3-3-3-3---3---3-3-3-3-3-|3---3-3-3-3-3-3---3---3-3-3-3-3-|
E-|--------------------------------|--------------------------------|
^ ^ ^ ^ ^ ^ ^ ^ ^ ^ ^ ^ ^ ^ ^ ^
1 2 3 4 1 2 3 4


e-|0---0-0-0-0-0-0---0---0-0-0-0-0-|0---0-0-0-0-0-0---0---0-0-0-0-0-|
b-|3---3-3-3-3-3-3---3---3-3-3-3-3-|1---1-1-1-1-1-1---1---1-1-1-1-1-|
g-|0---0-0-0-0-0-0---0---0-0-0-0-0-|2---2-2-2-2-2-0---0---0-0-0-0-0-|
d-|0---0-0-0-0-0-0---0---0-0-0-0-0-|3---3-3-3-3-3-2---2---2-2-0-0-0-|
a-|2---2-2-2-2-2-2---2---2-2-2-2-2-|3---3-3-3-3-3-3---3---3-3-3-3-3-|
E-|3---3-3-3-3-3-3---3---3-3-3-3-3-|--------------------------------|
^ ^ ^ ^ ^ ^ ^ ^ ^ ^ ^ ^ ^ ^ ^ ^
1 2 3 4 1 2 3 4


e-|1---1-1-1-1-1-1---1---1-1-1-1-1-|
b-|3---3-3-3-3-3-3---3---3-3-3-3-3-|
g-|2---2-2-2-2-2-0---0---0-0-0-0-0-|
d-|0---0-0-0-0-0-0---0---0-0-0-0-0-|
a-|0---0-0-0-0-0-2---2---2-2-2-2-2-|
E-|--------------3---3---3-3-3-3-3-|
^ ^ ^ ^ ^ ^ ^ ^
1 2 3 4


BRIDGE - "there is no order..."

e-|0---0-0-0-0-0-0-0---0-0-0-0-0-0-|0---0-0-0-0-0-0---0---0-0-0-0-0-|
b-|1---1-1-1-1-1-1-1---1-1-1-1-1-1-|3---3-3-3-3-3-3---3---3-3-3-3-3-|
g-|2---2-2-2-2-2-2-0---0-0-0-0-0-0-|2---2-2-2-2-2-2---2---2-2-2-2-2-|
d-|2---2-2-2-2-2-2-2---2-2-2-2-2-2-|0---0-0-0-0-0-0---0---0-0-0-0-0-|
a-|0---0-0-0-0-0-0-x---x-x-x-x-x-x-|0---0-0-0-0-0-0---0---0-0-0-0-0-|
E-|----------------3---3-3-3-3-3-3-|2---2-2-2-2-2-2---2---2-2-2-2-2-|
^ ^ ^ ^ ^ ^ ^ ^ ^ ^ ^ ^ ^ ^ ^ ^
1 2 3 4 1 2 3 4


e-|1---1-1-1-1-1-1---1---1-1-1-1-1-|0---0-0-0-0-0-0---0---0-0-0-0-0-|
b-|1---1-1-1-1-1-1---1---1-1-1-1-1-|0---0-0-0-0-0-0---0---0-0-0-0-0-|
g-|2---2-2-2-2-2-2---2---2-2-2-2-2-|1---1-1-1-1-1-1---1---1-1-1-1-1-|
d-|3---3-3-3-3-3-3---3---3-3-3-3-3-|2---2-2-2-2-2-2---2---2-2-2-2-2-|
a-|3---3-3-3-3-3-3---3---3-3-3-3-3-|2---2-2-2-2-2-2---2---2-2-2-2-2-|
E-|1---1-1-1-1-1-1---1---1-1-1-1-1-|0---0-0-0-0-0-0---0---0-0-0-0-0-|
^ ^ ^ ^ ^ ^ ^ ^ ^ ^ ^ ^ ^ ^ ^ ^
1 2 3 4 1 2 3 4


STRUCTURE

INTRO
VERSE 1
INTRO
VERSE 2
INTRO
VERSE 3
BRIDGE
INTRO x2
VERSE 4
INTRO to END

 
»
Tvoje obľúbené položky
Tvoje obľúbené položky
»
Najnovšie videá
Najnovšie videá

The Wallflowers - The empire in my mind

The Wallflowers - Empire in my mind, Liv

The Wallflowers - Empire in my mind live

The Wallflowers - Empire in My Mind (lyr

Merlin-Empire in my mind

Patrick Jane - Empire My Mind

»
Najnavštevovanejšie piesne
Najnavštevovanejšie piesne
»
Nové albumy interpreta
Nové albumy interpreta
CD Wallflowers Glad all over
CD Glad all
over



home | interpreti | register piesní | cd & dvd shop | pripomienky/nápady | kontakt | ochrana údajov | inzercia

TOPlist