Pink Floyd

piesne (592)

  texty (242) / preklady (98)
  akordy (203) / taby (236)
  noty (0) / slideshow (0)

články (154)
fotogaléria
diskusia
videá
diskografia
v obchode
odkazy
koncerty
sťahuj



pridaj vlastný článok

Nick Mason:
Do Prahy přijíždí Nick Mason, bývalý bubeník Pink Floyd. Se svou kapelou
navazuje na počátky psychedelické hudby
- Někdejší bubeník kapely Pink Floyd Nick Mason (na snímku před Viktoriiným a Albert... - ihned.cz


David Gilmour:
Pink Floyd za všechny peníze. Aukce Gilmourových kytar vynesla 21,5 milionu
dolarů
- 0 „Neplánuji žádnou šílenost.“ Turné k nové desce Davida Gilmoura se nese v.... - lidovky.cz


Nick Mason:
Nick Mason z Pink Floyd získal titul CBE - včera o 08:30 | redakcia Anglický bubeník Nick Mason, známy z už nefungujúcich P... - zoznam.sk


David Gilmour:
Část gearu Davida Gilmoura míří do aukce - David Gilmour, kytarista artrockových titánů Pink Floyd, se rozhodl nabídnou v aukci ... - frontman.cz


Nick Mason:
Zakladajúci člen Pink Floyd Nick Mason vystúpi so svojou kapelou v Prahe - pred 44 minútami | redakcia Nick Mason's Saucerful of Secrets je anglická rocková f... - zoznam.sk


David Gilmour:
Chcete kousek Pink Floydů? Frontman kapely David Gilmour prodá v aukci 120
svých kytar
- 0 Pink Floyd v roce 1971 | na serveru Lidovky.cz | aktuální zprávy PINK FLOYD V ROC... - lidovky.cz


Pink Floyd:
Revivalová skupina Pink Floyd zrušila koncerty v Izraeli, po výzve Watersa - pred 55 minútami | redakcia Britská revivalová skupina hrajúca hudbu Pink Floyd od... - zoznam.sk


Adele:
TOP 10 letos vydaných hudebních knih: Exkluzivní čtení nabízí Škwor,
Marpo, Pink Floyd i Adele
- Vydáno 07.12.2018 | autor: Jitka Fialková Každý rok knižní trh nabízí nové ... - ireport.cz


Pink Floyd:
Rick Wright sa autorsky podieľal na slávnych albumoch Pink Floyd. Dnes by mal
75 rokov
- 28.07.2018 - 13:00 | redakcia Rick Wright, člen legendárnej artrockovej formácie Pi... - zoznam.sk


Monkey Business:
Retro žije. O kouzlu starých vinylů vědí i Češi - Queen, Pink Floyd i Bowie. V některých zemích se vrací vinylové desky a jejich popul... - denik.cz


 

Pink Floyd

Fanúšikov: 97



A B C Č D E F G H CH I J K L Ľ M N O P Q R S Š T U V W X Y Z Ž



ako:
Pink Floyd - Obscured By Clouds Version 2
Pink Floyd - Obscured By Clouds Version 2

tlač

edituj
Rok vzniku: 1968
Pesničku videlo 2857 návštevníkov.

Kvalita tabov : bez hodnotenia
Hodnotilo ľudí: 0 ohodnoť aj ty
Prispievateľ:

Diwa Swina
Autor hudby: Pink Floyd
   This is played on a slide but normal sounds good enough.

e|----------------|-------------------|------------------|----------------|
B|----------------|-------------------|------------------|----------------|
G|----------------|-------------------|------------------|----------------|
D|-7--------------|-------------------|------------------|----------------|
A|-0--------------|-------------------|------------------|----------------|
E|----------------|-------------------|------------------|----------------|

e|----------------|-------------------|------------------|----------------|
B|----------------|-------------------|------------------|----------------|
G|----------------|-------------------|------------------|----------------|
D|-7--------------|-------------------|------------------|----------------|
A|-0--------------|-------------------|------------------|----------------|
E|----------------|-------------------|------------------|----------------|

e|----------------|-------------------|------------------|----------------|
B|----------------|-------------------|------------------|----------------|
G|-7--/9----------|-------------------|------------------|----------------|
D|----------------|-------------------|-10--/12----------|----------9\--5-|
A|----------------|-------------------|------------------|----------------|
E|----------------|-------------------|------------------|----------------|

e|----------------|-------------------|------------------|------------------|
B|----------------|-------------------|------------------|------------------|
G|----------------|-------------------|------------------|------------------|
D|-5--/7----------|-------------------|------------------|------------------|
A|----------------|-------------------|------------------|------------------|
E|---------------|-------------------|------------------|-------------------|

e|----------------|-------------------|------------------|------------------|
B|----------------|-------------------|------------------|------------------|
G|-7--/9----------|-------------------|------------------|------------------|
D|---------------|-------------------|-10--/12----------|----------9\--5----|
A|----------------|-------------------|------------------|------------------|
E|----------------|-------------------|------------------|------------------|

e|----------------|-------------------|------------------|----------------|
B|----------------|-------------------|------------------|----------------|
G|----------------|-------------------|------------------|----------------|
D|-5--/7----------|-----------5--2--0-|------------------|----------------|
A|----------------|-------------------|-0----------------|----------------|
E|----------------|-------------------|------------------|----------------|

e|----------------|-------------------|------------------|----------------|
B|----------------|------------8--/10-|-10----------8--8-|-8--------------|
G|----------7--/9-|-9-----------------|------------------|------7/-----/9-|
D|----------------|-------------------|------------------|----------------|
A|----------------|-------------------|------------------|----------------|
E|----------------|-------------------|------------------|----------------|


e|----------------|-------------------|------------------|----------------|
B|----------------|-------------------|------------------|----------------|
G|----------------|-------------------|------------------|----------------|
D|------------5/--|/7-----------------|-------7--5--2--0-|----------------|
A|----------------|-------------------|------------------|-0--------------|
E|----------------|-------------------|------------------|----------------|

e|----------------|-------------------|------------------|----------------|
B|----------------|-------------------|------------------|----------------|
G|----------------|-------------------|---------2/-------|/14--14---------|
D|----------------|-------------------|------------------|----------------|
A|----------------|-------------------|------------------|----------------|
E|----------------|-------------------|------------------|----------------|

e|----------------|-------------------|------------------|----------------|
B|----------------|-------------------|------------------|----------------|
G|-------17----12-|-12/14-------------|---------2/-------|/14-------------|
D|----------------|-------------------|------------------|----------------|
A|----------------|-------------------|------------------|----------------|
E|----------------|-------------------|------------------|----------------|

e|----------------|-------------------|------------------|----------------|
B|----------------|-------------------|------------------|----------------|
G|-------17----12-|-12/14-------------|---------------12/|14--14--14------|
D|----------------|-------------------|------------------|----------------|
A|----------------|-------------------|------------------|----------------|
E|----------------|-------------------|------------------|----------------|

e|----------------|-------------------|------------------|----------------|
B|----------------|-------------------|------------------|----------------|
G|-------------12/|14--14--14---------|---------------12/|14--14--14------|
D|----------------|-------------------|------------------|----------------|
A|----------------|-------------------|------------------|----------------|
E|----------------|-------------------|------------------|----------------|

e|----------------|-------------------|------------------|----------------|
B|----------------|-------------------|------------------|----------------|
G|-------------12/|14--14--14---------|---------------12/|14--14--14------|
D|----------------|-------------------|------------------|----------------|
A|----------------|-------------------|------------------|----------------|
E|----------------|-------------------|------------------|----------------|

____________________________________________________________________________

Track 2
When You're In

e|-----------------|-------------------|-----------------|----------------|
B|-----------------|-------------------|-----------------|----------------|
G|-----------------|-------------------|--------------x-x|-7-5------------|
D|-7---7---5-7-7---|-7---7---5-7-7-5---|--------------x-x|-7-5------------|
A|-7---7---7---7---|-7---7---7---7---7-|-----------------|----------------|
E|-5---5---5---5---|-5---5---5---5-----|-5---------------|----------------|

e|-----------------|-------------------|-----------------|----------------|
B|-----------------|-------------------|-----------------|----------------|
G|-----------------|-------------------|--------------x-x|-7-5------------|
D|-7---7---5-7-7---|-7---7---5-7-7-5---|--------------x-x|-7-5------------|
A|-7---7---7---7---|-7---7---7---7---7-|-----------------|----------------|
E|-5---5---5---5---|-5---5---5---5-----|-5---------------|----------------|

e|-------------------|-------------------|----------------|---------------|
B|-------------------|-------------------|----------------|---------------|
G|-7---7---7-5-------|-7---7---7-5-------|----------------|---------------|
D|-7---7---7---7-7---|-7---7---7---7-7-5-|-5-7------------|---------------|
A|-5---5---5---5-5---|-5---5---5---5-5-5-|-5--------------|---------------|
E|-------------------|-------------------|----------------|---------------|

e|-----------------|-------------------|-----------------|----------------|
B|-----------------|-------------------|-----------------|----------------|
G|-----------------|-------------------|-----------------|----------------|
D|-7---7---5-7-7---|-7---7---5-7-7-5---|-----------------|----------------|
A|-7---7---7---7---|-7---7---7---7---7-|-----------------|----------------|
E|-5---5---5---5---|-5---5---5---5-----|-5---------------|----------------|

e|-----------------|-------------------|-----------------|----------------|
B|-----------------|-------------------|-----------------|----------------|
G|-----------------|-------------------|--------------x-x|-7-5------------|
D|-7---7---5-7-7---|-7---7---5-7-7-5---|--------------x-x|-7-5------------|
A|-7---7---7---7---|-7---7---7---7---7-|-----------------|----------------|
E|-5---5---5---5---|-5---5---5---5-----|-5---------------|----------------|

e|-----------------|-------------------|-----------------|----------------|
B|-----------------|-------------------|-----------------|----------------|
G|-----------------|-------------------|--------------x-x|-7-5------------|
D|-7---7---5-7-7---|-7---7---5-7-7-5---|--------------x-x|-7-5------------|
A|-7---7---7---7---|-7---7---7---7---7-|-----------------|----------------|
E|-5---5---5---5---|-5---5---5---5-----|-5---------------|----------------|

e|-------------------|-------------------|----------------|---------------|
B|-------------------|-------------------|----------------|---------------|
G|-7---7---7-5-------|-7---7---7-5-------|-------------x-x|-7-5-----------|
D|-7---7---7---7-7---|-7---7---7---7-7-5-|-5-7---------x-x|-7-5-----------|
A|-5---5---5---5-5---|-5---5---5---5-5-5-|-5--------------|---------------|
E|-------------------|-------------------|----------------|---------------|

e|-----------------|-------------------|-----------------|----------------|
B|-----------------|-------------------|-----------------|----------------|
G|-----------------|-------------------|-----------------|----------------|
D|-7---7---5-7-7---|-7---7---5-7-7-5---|-----------------|----------------|
A|-7---7---7---7---|-7---7---7---7---7-|-----------------|----------------|
E|-5---5---5---5---|-5---5---5---5-----|-5---------------|----------------|

____________________________________________________________________________

Track 3
Burning Bridges

Chords Used

G F D Bb F C G

G F
Bridges burning gladly, merging with the shadows,

D
Flickering between the lines.

Bb F
Stolen moments floating softly on the air,

C G
Born on wings of fire and climbing higher.

Ebmaj7 Dbmaj7
Ancient bonds are breaking, moving on and changing sides.

Ebmaj7 Dbmaj7
Dreaming of a new day, cast aside the other way.

Ab G
Magic visions stirring, kindled by and burning flames rise in her eyes.

Ebmaj7 Dbmaj7
The door that stands ajar, the walls that once were high.

Ebmaj7 Dbmaj7
Beyond the gilded cage, beyond the reach of ties.

Ab
The moment is at hand.

G
She breaks the golden band.

Ebmaj7 Dbmaj7 Ab

____________________________________________________________________________

Track 4
The Gold It's In The...

Chords Used

E D A E D A


E D A
Come on, my friends, let's make for the hills.

E D A
They say there's gold but I'm looking for thrills.

E D A
You can get your hands on whatever we find,

E D A
'Cause I'm only coming along for the ride.

B
Well, you go your way, I'll go mine.

G
I don't care if we get there on time.

A
Everybody's searching for something, they say.

F
I'll get my kicks on the way.

E D A
Over the mountains, across the seas,

E D A
Who knows what will be waiting for me?

E D A
I could sail forever to strange sounding names.

E D A
Faces of people and places don't change.

B
All I have to do is just close my eyes

G
To see the seagulls wheeling in those far distant skies.

A F
All I want to tell you, all I want to say is count me in on the journey.

Don't expect me to stay.

E D A E D A

____________________________________________________________________________

Track 5
Wots...Uh, The DEAL?

Chords Used

G G7 C Em Am D7 D7sus4 D9

Intro and Verses

e|-------3---------|-------2---------|-------1---------|-------0---------|
B|-----0---0-------|-----0---0-------|-----0---0-------|-----0---0-------|
G|---0-------0---0-|---0-------0---0-|---0-------0---0-|---0-------0---0-|
D|-5-----------5---|-4-----------4---|-3-----------3---|-2-----------2---|
A|-----------------|-----------------|-----------------|-----------------|
E|-----------------|-----------------|-----------------|-----------------|


e|-------0---------|-----------------|-------2---------|-2---0-0-0-0-----||
B|-----0---0-------|-----------------|-----1---1-------|-1---1-1-1-1-0---||
G|---0-------0---0-|---0---0---0---0-|---2-------2---2-|-----2-2-2-2-0---||
D|-1-----------1---|-0---1---2---1---|-0-----------0---|---0-0-0-0-0-0---||
A|-----------------|-----------------|-----------------|-----------------||
E|-----------------|-----------------|-----------------|-----------------||

Heaven sent the promised land
Looks alright from where I stand
Cause I'm the man on the outside looking in

Waitin on the first step
Show me where the key is kept
Point me down the right line because it's time
To let me in

Chorus

G G7 C E Am
So let me in from the cold Turn my lead into gold

G G7
Cause there's a chill wind blowin' in my soul and I think I`m

D7 D9
growing old


Flash the readies wots...uh the deal?
Got to make it to the next meal
Try to keep up with the turnin of the wheel

Mile after mile stone after stone
You turn to speak but you're alone
Million miles from home you're on your own
So let me in

Chorus
G G7 C E Am
So let me in from the cold Turn my lead into gold

G G7
Cause there's a chill wind blowin' in my soul and I think I`m

D7 D9
growing old


Solo In Slide (Tuning - D G D G B e low to high)


e|-------------------------------15-15--------------------------|
B|---------12----13\12-----12/15--------13-12---------------17--|
G|---9-----------------12---------------------12----12/17-------|
D|---9-------------------------------------------12-12/17-------|
G|7-/-12--------------------------------------------------------|
D|--------------------------------------------------------------|


e|---------------------------------------------------------------|
B|-----------------------------------------------12-13\12--------|
G|----17-\-16-\-14--------14\12/14\12--\10/-12-12---------12--12-|
D|(17)--------------12/14---------(12)-\10/-12--------------12---|
G|---------------------------------------------------------------|
D|---------------------------------------------------------------|

[ Tab from: http://www.guitaretab.com/p/pink-floyd/83683.html ]
e|-----------------------------------------------------|
B|12\10/12-10\7-7----10/12--\10--10--------------------|
G|---------------7------------------9\7--9\7-----------|
D|----------------7--------------------------9\7-(5)---|
G|-----------------------------------------------------|
D| ----------------------------------------------------|


Fly bright by candle light with her by my side
And if she prefers we never stir again
Someone sent the promised land and I grabbed it with both hands
Now I'm the man on the inside looking out

Chorus
G G7 C Em Am
Hear me shout come on in What's the news, where've you been

G G7 D7 D9
Cause there's no wind left in my soul and I've grown old

D7 D7sus4 D7 D9 D7

____________________________________________________________________________

Track 6
Mudmem

B - Bend

Ebmaj7 Dbmaj7
e|--B----------------B--------|--B--------------------|-------------------|
B|-9(11)-----------11(13)--9--|-9(11)-----------(11)--|-9--------8--------|
G|----------------------------|-----------------------|--------------8----|
D|----------------------------|-----------------------|-------------------|
A|----------------------------|-----------------------|-------------------|
E|----------------------------|-----------------------|-------------------|

Ab
e|---------------------------|-19(20)-----19-17-15-19(20)-----------|
B|--B---------------------16-|---B-------------------B-----------16-|
G|-8(10)---------------------|--------------------------------------|
D|---------------------------|--------------------------------------|
A|---------------------------|--------------------------------------|
E|---------------------------|--------------------------------------|

G
e|-19(20)-----18-16-18-(20)---------|-15----------17(19)-(19)17-15-|
B|---------------------B------------|---------------B-------R------|
G|----------------------------------|------------------------------|
D|----------------------------------|------------------------------|
A|----------------------------------|------------------------------|
E|----------------------------------|------------------------------|

F
e|-17(19)------17---15---------|--------------------|---------------------|
B|-----------------------------|--------------------|---------------------|
G|-----------------------------|-16-14-16---14---12-|-12-14-14---12-14-14-|
D|-----------------------------|-w/slide------------|---------------------|
A|-----------------------------|--------------------|---------------------|
E|-----------------------------|--------------------|---------------------|

D Bb F
e|-------------|-------------------|---------------13-|----13----13-------|
B|-------------|----15-15-17-19-20-|----13-15---15----|-15----13----13-15-|
G|-11--16---14-|-16----------------|-15---------------|-------------------|
D|-------------|-------------------|------------------|-------------------|
A|-------------|-------------------|------------------|-------------------|
E|-------------|-------------------|------------------|-------------------|

C G F
e|---------------|---------------|-----------------|----------------------|
B|-17----15--13--|-15------------|-----------------|----------------12-13-|
G|---------------|---------------|-16------12---14-|-16-14-12-14----------|
D|---------------|---------------|-----------------|----------------------|
A|---------------|---------------|-----------------|----------------------|
E|---------------|---------------|-----------------|----------------------|

D Bb F
e|----12--14---12-|-14--14----------|----------------|-----------15-17-13-|
B|-15-------------|---------15------|----------------|-15----13-----------|
G|----------------|-----------------|-15-------------|--------------------|
D|----------------|-----------------|----------------|--------------------|
A|----------------|-----------------|----------------|--------------------|
E|----------------|-----------------|----------------|--------------------|

C G Ebmaj7
e|-15--13----------|---------------|--B---------B-------|--B-------B------|
B|-----------------|---------------|-9(11)----11(13)--9-|-9(11)--11(13)---|
G|---------12--14--|-16------------|--------------------|-----------------|
D|-----------------|-----end slide-|--------------------|-----------------|
A|-----------------|---------------|--------------------|-----------------|
E|-----------------|---------------|--------------------|-----------------|

Dbmaj7 Ebmaj7
e|----------------|--------------|--B---------B-------|--B--------B-------|
B|-9------8-------|--B-----------|-9(11)----11(13)--9-|-9(11)----9(11)----|
G|------------8---|-8(10)--------|--------------------|-------------------|
D|----------------|--------------|--------------------|-------------------|
A|----------------|--------------|--------------------|-------------------|
E|----------------|--------------|--------------------|-------------------|

Dbmaj7 Ab
e|-----------------|-------------------|-19(20)---19-17-15-19-19(20)------|
B|-9---------------|--B-------------16-|----------------------------------|
G|---------8-------|-8(10)-------------|----------------------------------|
D|-----------------|-------------------|----------------------------------|
A|-----------------|-------------------|----------------------------------|
E|-----------------|-------------------|----------------------------------|

G
e|-19(20)(20)-18-15-19-19(21)--19--|-15------------B------B----|----------|
B|---B-------------------B---------|-------15----13(15)-13(15)-|----------|
G|---------------------------------|---------------------------|----------|
D|---------------------------------|---------------------------|----------|
A|---------------------------------|---------------------------|----------|
E|---------------------------------|---------------------------|----------|


____________________________________________________________________________

Track 7
Childhood's End


Intro

Em Am Em Am
e|----------------|----------------|-----------------|----------------|
B|----------------|----------------|-----------------|----------------|
G|----------------|---2-------2p0--|-----------------|---2-------2p0--|
D|----2-----2p0---|---2-------2p0--|----2-----2p0----|---2-------2p0--|
A|----2-----------|---0------------|----2------------|---0-------0----|
E|-0-----0------3h|5-----3h5-------|-0-----0-------3h|5-----3h5-------|

Am G D Em G D Am Em
e|----------------|----------------|-----------------|----------------|
B|----------------|----------------|------3---3-3----|----------------|
G|----2------2p0--|----------------|------2---2-2----|-2--2-----------|
D|----2------2p0--|-5-0-2------2-2-|-5--5-0---0-0----|-2--2--2---2-2--|
A|-0--------------|-5-0-2------2-2-|-5--5------------|-0--0--2---2-2--|
E|-------3h5------|-3---0------0-0-|-3--3------------|-------0---0-0--|

Verse

Em Am Em Am
e|----------------|----------------|-----------------|----------------|
B|----------------|----------------|-----------------|----------------|
G|----------------|---2-------2p0--|-----------------|---2-------2p0--|
D|----2-----2p0---|---2-------2p0--|----2-----2p0----|---2-------2p0--|
A|----2-----------|---0------------|----2------------|---0-------0----|
E|-0-----0------3h|5-----3h5-------|-0-----0-------3h|5-----3h5-------|

Em Am Am G D Em
e|----------------|----------------|-----------------|----------------|
B|----------------|----------------|-----------------|----------------|
G|----------------|---2-------2p0--|----2-------2p0--|----------------|
D|----2-----2p0---|---2-------2p0--|----2-------2p0--|-5-0-2------2-2-|
A|----2-----------|---0------------|-0----------0----|-5-0-2------2-2-|
E|-0-----0------3h|5-----3h5-------|-------3h5-------|-3---0------0-0-|

G D Am Em
e|-----------------|----------------|
B|------3---3-3----|----------------|
G|------2---2-2----|-2--2-----------|
D|-5--5-0---0-0----|-2--2--2---2-2--|
A|-5--5------------|-0--0--2---2-2--|
E|-3--3------------|-------0---0-0--|


Em
You shout in your sleep.

Am
Perhaps the price is just too steep.

Em Am
Is your conscience at rest if once put to the test?

Em Am
You awake with a start to just the beating of your heart.

G D Em G D Am Em
Just one man beneath the sky, just two ears, just two eyes.

Em Am
You set sail across the sea of long past thoughts and memories.

Em Am
Childhood's end, your fantasies merge with harsh realities.

Em Am
And then as the sail is hoist, you find your eyes are growing moist.

G D Am G D Am Em
All the fears never voiced say you have to make your final choice.


Solo

e|12-15^---15--------------------------------------------------------|
B|------------15^--15-15-15-15---------------------------------------|
G|------------------------------14-14^--------12-14-(^)14-12-14------|
D|----------------------------------------/14--------------------12^^|
A|-------------------------------------------------------------------|
E|-------------------------------------------------------------------|


e|--------------------------------------------12---------|
B|13^--------------------------------------12-----12-15^-|
G|------14^12-----------12-14^-14-12---------------------|
D|------------14^^^--14--------------14------------------|
A|-------------------------------------------------------|
E|-------------------------------------------------------|


e|--------------------15---------17^--17-15-17-15---|
B|17^---15-17-----15^----15----17----------------17-|
G|--------------------------------------------------|
D|--------------------------------------------------|
A|--------------------------------------------------|
E|--------------------------------------------------|


e|17^---17^-17-15-17---15-12\------------15-12---------------|
B|-------------------------------15-15^----------15-15-15----|
G|--------(0)--------------------------------------------14^-|
D|-----------------------------------------------------------|
A|-----------------------------------------------------------|
E|-----------------------------------------------------------|


e|17^--17-----------------------------------------|
B|----------17^--15-17----------------------------|
G|----------------------------------14^-14-12-----|
D|-------------------------------------------14---|
A|------------------------------------------------|
E|------------------------------------------------|

Em Am
Who are you and who am I to say we know the reason why?

Em Am
Some are born; some men die beneath one infinite sky.

Em
There'll be war, there'll be peace.

Am
But everything one day will cease.

G D Em
All the iron turned to rust all the proud men turned to dust.

Am
And so all things time will mend.

G D Em
So this song will end.

____________________________________________________________________________

Track 8
Free Four

Chords Used

B Bsus4 B G A B Bsus4 B G A G


G C D G
The memories of a man in his old age are the deeds of a man in his prime.

C D G
You shuffle in gloom in the sickroom and talk to yourself till you die.

C D G
Life is a short, warm moment and death is a long cold rest.

C
You get your chance to try in the twinkling of an eye

D G
Eighty years, with luck, or even less.


C D G
So all aboard for the American tour, and maybe you'll make it to the top.

C
And mind how you go, and I can tell you, 'cause I know.

D G
You may find it hard to get off.


B Bsus4 B G A B Bsus4 B G A G

G C D G
You are the angel of death and I am the dead man's son.

C
And he was buried like a mole in a fox hole.

D G
And everyone is still on the run.

C
And who is the master of fox hounds?

D G
And who says the hunt has begun?

C
And who calls the tune in the courtroom?

D G
And who beats the funeral drum?

C D G
The memories of a man in his old age are the deeds of a man in his prime.

C D G
You shuffle in gloom in the sickroom and talk to yourself till you die.

B Bsus4 B G A B Bsus4 B G A G

____________________________________________________________________________

Track 9
Stay

Chords Used

G C/G D/G C/G G C/G D/G C/G

G C/G D/G
Stay and help me to end the day.

C/G G C/G D/G
And if you don't mind we'll break a bottle of wine.

C/G G C/G D/G C/G G
Stick around and maybe we'll put one down, 'cause I wanna find

C/G D/G C/G
What lies behind those eyes.

Gm7 C Gm7 C
Midnight blue, burning gold.

Gm7 C Gm7 C
A yellow moon is growing cold.

Bb F/A Eb F D C Bb F/A Eb Db D

G C/G D/G C/G
I rise, looking through my morning eyes,

G C/G D/G
Surprised to find you by my side.

C/G G C/G D/G C/G
Rack my brain to try to remember your name

G C/G D/G C/G
To find the words to tell you goodbye.

Gm7 C Gm7 C
Morning dues. Newborn day.

Gm7 C Gm7 C
Midnight blue turn to gray.


Bb F/A Eb F D G C/G D/G C/G G C/G D/G C/G

Gm7 C Gm7 C
Midnight blue, burning gold.

Gm7 C Gm7 C G C/G
A yellow moon is growing cold.

D/G C/G G C/G D/G C/G G

____________________________________________________________________________

Track 10
Absolutely Curtains

Sorry guys no guitar in this song.


 
»
Tvoje obľúbené položky
Tvoje obľúbené položky
»
Najnovšie videá
Najnovšie videá

Pink Floyd - Obscured By Clouds Recordin

Obscured By Clouds, 2 Pink Floyd Covers

Free Four

Obscured by clouds-Pink Floyd with iPad

Obscured by Clouds / When You're In - Pi

Pink Floyd " Obscured By Clouds" 1973 R

»
Najnavštevovanejšie piesne
Najnavštevovanejšie piesne
Wish You Were Here - akordy a text

Another Brick in the Wall, part 2 - akordy a text

High Hopes - akordy a text

Wish You Were Here Chords - akordy a text

Another Brick In The Wall Part 1 - akordy a text

Hey You - akordy a text

Comfortably Numb - akordy a text

High Hopes - preklad

Wish You Were Here - taby

The Wall - Comlete - akordy a text

Wish You Were Here (česky) - akordy a text

Wish You Were Here - taby

Mother - akordy a text

Another Brick In The Wall Part 3 - akordy a text

Wish You Were Here - text

Another Brick In The Wall - text

Time - akordy a text

Money - akordy a text

Goodbye Blue Sky - akordy a text

Wish You Were Here-Cz - preklad

viac

»
Nové albumy interpreta
Nové albumy interpreta
BK Pink Floyd Captured through time (+ foil blocked holographic
BK Captured
through
time (+
foil
blocked
holographi
c
HRNEK Pink Floyd The endless river [hrnČek]
HRNEK The
endless
river
[hrnček]
HRNEK Pink Floyd Animals [hrnČek]
HRNEK Animals
[hrnček]
HRNEK Pink Floyd Tree [hrnČek]
HRNEK Tree
[hrnček]
HRNEK Pink Floyd Rainbow theatre [hrnČek]
HRNEK Rainbow
theatre
[hrnček]
HRNEK Pink Floyd Band [hrnČek]
HRNEK Band
[hrnček]



home | interpreti | register piesní | cd & dvd shop | pripomienky/nápady | kontakt | ochrana údajov | inzercia

TOPlist