Arzén

piesne (51)

  texty (46) / preklady (0)
  akordy (32) / taby (4)
  noty (0) / slideshow (0)

články (116)
fotogaléria
diskusia
videá
diskografia
v obchode
odkazy
koncerty
sťahuj



pridaj vlastný článok

Arzén:
Arzén a Čechomor nahrali spoločnú skladbu „Dievčatko“ - ...


Arzén:
Skupina Arzén a Čechomor sa chystajú spolu na turné - ... - LIVEmusic.sk


Arzén:
Arzénu to teraz dobre vyhráva - Po šiestich rokoch, vyplnených najmä koncertnou činnosťou, vydala kapela Arzén v po... - zilinskyvecernik.sk


Annihilator:
Budzogáň ohrozovali blesky, Iné Kafe nedohrali - Sobotný program pokračuje bez zmien a vstupenky kúpené na piatok platia aj v sobotu ...


Alice In Chains:
TOPFEST tento rok aj s Voodoo Six, Rytmusom, Majkom Spiritom, ale bez skupiny
Kabát!
- Hudobný festival Topfest sláviaci 10. narodeniny privíta v posledné dni mesiaca jún ... - topfest.sk


Arzén:
Billy Talent sa vrátia na Slovensko, vystúpia na Topfeste - Kanadská punk-rocková formácia Billy Talent je ďalším potvrdeným zahraničným int...


Arzén:
SKA – P prídu gratulovať TOPFESTU k 10. výročiu ! - Desiaty ročník najväčšieho rockového open air festivalu na Slovensku ohlasuje prv... - Agentúra DUNA


Arzén:
Topfest 2013 potrvá tri dni - Organizátori sa rozhodli, že jubilejný 10. ročník festivalu sa začne už vo štvrto...


Arzén:
Arzén - Odpovede - Terchovsko-žilinská skupina Arzén vydáva svoj nový album ODPOVEDE. Je výnimočný n...


Arzén:
ARZÉN: Aspoň zostalo viac šampanského do šatne - Týždeň si nechali členovia skupiny Arzén na to, aby si utriedili myšlienky v hlave ...


 

Arzén

Fanúšikov: 10



A B C Č D E F G H CH I J K L Ľ M N O P Q R S Š T U V W X Y Z Ž



ako:
Arzén - Raz ťa nájdem
Arzén - Raz ťa nájdem

tlač

edituj
Rok vzniku: 2006
Pesničku videlo 3357 návštevníkov.

Kvalita tabov :
Hodnotilo ľudí: 1 ohodnoť aj ty
Prispievateľ:

Los
  *** Autor textu: Pavol Cabadaj *** Autor hudby: Pavol Cabadaj
ARZÉN - Raz ťa nájdem
Transcribbed by LOS (samomiz@post..sk)

h = hammer on
p = pull off
sl = slide

Čas : 0:00 – 0:14 (začína iba jednou gitarou)

1.Gitara
|--------------------------------------------------------------------------------------|
|----2-----------3----------5----3--------------2---------3------5---5-----------------|
|-----------------------------------------------------------------------7-6-7-p-6------|
|--------2-sl-4----4--sl-5----5-p4-----------------2-sl-4---4-sl-5-----------------7-5-|
|-0-----------0----------0-------0--0-3-h-4--0----------0--------0---------------------|
|--------------------------------------------------------------------------------------|

|-------------------------------------------------------------------------------9-----------5---|
|----2---------3---------5----3----------------2---------3------5-----------------10------------|
|-----------------------------------------------------------------------8-sl-9-------5-sl-6---6-|
|------2-sl-4----4-sl-5----5-p4-------------------2-sl-4---4-sl-5-------------------------------|
|-0---------0---------0-------0---0-3-h-4--0-----------0--------0-------------------------------|
|-----------------------------------------------------------------------------------------------|

Čas: 0:14 – 0:41

1.Gitara
|-------------------------------------------------------------------------------------|
|----2----------3----------5------3----------2--------3------5------------------------|
|-----------------------------------0---------------------------------------2-0-------|
|-------2-sl-4----4-sl-5-----5---------4-------2-sl-4---4-sl-5--------------------0---|
|-0----------0---------0--------0----------0--------0--------0---0-3-h-4------------4-|
|-------------------------------------------------------------------------------------|
2.Gitara
|-------------------------------------------------------------------------------|
|----2----------3---------5--------3----3----2---------3--------5--------3----3-|
|-------------------------------------------------------------------------------|
|-------2-sl-4----4-sl-5----5-p-4----4---------2-sl-4----4-sl-5---5-p-4----4----|
|-0-----------------------------------------0-----------------------------------|
|-------------------------------------------------------------------------------|
Bolo to dávno, asi včera snáď

1.Gitara
|-------------------------------------------------------------------------------------|
|----2----------3----------5------3----------2--------3------5------------------------|
|-----------------------------------0---------------------------------------2-0-------|
|-------2-sl-4----4-sl-5-----5---------4-------2-sl-4---4-sl-5--------------------0---|
|-0----------0---------0--------0----------0--------0--------0---0-3-h-4------------4-|
|-------------------------------------------------------------------------------------|
2.Gitara
|-------------------------------------------------------------------------------|
|----2----------3---------5--------3----3----2---------3--------5--------3----3-|
|-------------------------------------------------------------------------------|
|-------2-sl-4----4-sl-5----5-p-4----4---------2-sl-4----4-sl-5---5-p-4----4----|
|-0-----------------------------------------0-----------------------------------|
|-------------------------------------------------------------------------------|
Odišla ráno, povedala : “Čau“

1.Gitara
|-------------------------------------------------------------------------------9-----------5---|
|----2---------3---------5----3----------------2---------3------5-----------------10------------|
|-----------------------------------------------------------------------8-sl-9-------5-sl-6---6-|
|------2-sl-4----4-sl-5----5-p4-------------------2-sl-4---4-sl-5-------------------------------|
|-0---------0---------0-------0---0-3-h-4--0-----------0--------0-------------------------------|
|-----------------------------------------------------------------------------------------------|
2.Gitara
|-------------------------------------------------------------------------------|
|----2----------3---------5--------3----3----2---------3--------5--------3----3-|
|-------------------------------------------------------------------------------|
|-------2-sl-4----4-sl-5----5-p-4----4---------2-sl-4----4-sl-5---5-p-4----4----|
|-0-----------------------------------------0-----------------------------------|
|-------------------------------------------------------------------------------|
Od tejto chvíle ostal som sám

1.Gitara
|-----------------------------------------------------------------------|
|---2----------3---------5--------3---------2---------3-----5---5-5-5-5-|
|-----------------------------------0---------------------------0-0-0-0-|
|------2-sl-4----4-sl-5----5----------4-------2-sl-4---4-sl-5---5-5-5-5-|
|-0---------0---------0---------0--------0---------0--------0---0-0-0-0-|
|-----------------------------------------------------------------------|
2.Gitara
|-----------------------------------------------------------------------|
|----2----------3---------5-------3----3----2--------3------5---5-5-5-5-|
|---------------------------------------------------------------0-0-0-0-|
|-------2-sl-4----4-sl-5---5-p-4----4---------2-sl-4---4-sl-5---5-5-5-5-|
|-0---------------------------------------0-----------------0---0-0-0-0-|
|-----------------------------------------------------------------------|
Takáto chvíľa je osudná.



Čas: 0:41 – 1:45
(2.Gitara hrá akordy v klasickej polohe, 1.gitara ich hrá v barovom prevedení)

[Esus4]Stá[E]le za [Esus4]tebou ute[E]kám
chcem za tebou [G, D]ísť[Dsus2]
no neviem [A]kam[G, A]
[G]Ísť [D]preč([Dmisus4, D, Dsus2]), za tebou [G]ísť [D]preč[Dsus2]
no neviem [A]kam[G, A]

Ref:
[E]Raz ťa nájdem, [D]aj keď to [Dmisus4]roky potr[A]vá[G, A].
[E]Potom ti poviem, [D]že to bola, [Dmisus4]že to bola krutá [A]hra[G, A].
[E]Raz ťa nájdem, [D]aj keď to [Dmisus4]roky potr[A]vá[G, A].
[E]Potom ti poviem, [D]že to bola, [Dmisus4]že to bola krutá [E]hra.
od teba.

Čas: 1:45- 1:58

1.Gitara
|--------------------------------------------------------------------------------------|
|----2-----------3----------5----3--------------2---------3------5---5-----------------|
|-----------------------------------------------------------------------7-6-7-p-6------|
|--------2-sl-4----4--sl-5----5-p4-----------------2-sl-4---4-sl-5-----------------7-5-|
|-0-----------0----------0-------0--0-3-h-4--0----------0--------0---------------------|
|--------------------------------------------------------------------------------------|
2.Gitara
|-------------------------------------------------------------------------------|
|----2----------3---------5--------3----3----2---------3--------5--------3----3-|
|-------------------------------------------------------------------------------|
|-------2-sl-4----4-sl-5----5-p-4----4---------2-sl-4----4-sl-5---5-p-4----4----|
|-0-----------------------------------------0-----------------------------------|
|-------------------------------------------------------------------------------|

1.Gitara
|-------------------------------------------------------------------------------9-----------5---|
|----2---------3---------5----3----------------2---------3------5-----------------10------------|
|-----------------------------------------------------------------------8-sl-9-------5-sl-6---6-|
|------2-sl-4----4-sl-5----5-p4-------------------2-sl-4---4-sl-5-------------------------------|
|-0---------0---------0-------0---0-3-h-4--0-----------0--------0-------------------------------|
|-----------------------------------------------------------------------------------------------|
2.Gitara
|-------------------------------------------------------------------------------|
|----2----------3---------5--------3----3----2---------3--------5--------3----3-|
|-------------------------------------------------------------------------------|
|-------2-sl-4----4-sl-5----5-p-4----4---------2-sl-4----4-sl-5---5-p-4----4----|
|-0-----------------------------------------0-----------------------------------|
|-------------------------------------------------------------------------------|

Čas: 1:58 – 2:25

1.Gitara
|-------------------------------------------------------------------------------------|
|----2----------3----------5------3----------2--------3------5------------------------|
|-----------------------------------0---------------------------------------2-0-------|
|-------2-sl-4----4-sl-5-----5---------4-------2-sl-4---4-sl-5--------------------0---|
|-0----------0---------0--------0----------0--------0--------0---0-3-h-4------------4-|
|-------------------------------------------------------------------------------------|
2.Gitara
|-------------------------------------------------------------------------------|
|----2----------3---------5--------3----3----2---------3--------5--------3----3-|
|-------------------------------------------------------------------------------|
|-------2-sl-4----4-sl-5----5-p-4----4---------2-sl-4----4-sl-5---5-p-4----4----|
|-0-----------------------------------------0-----------------------------------|
|-------------------------------------------------------------------------------|
3.Gitara
|-----------------------7--7-----5--5-5-----------------------7--7-----5--5-5-|
|-----------------------8--8-----5--5-5-----------------------8--8-----5--5-5-|
|-----------------------0--0-----7--7-7-----------------------0--0-----7--7-7-|
|--------------------------------0--0-0--------------------------------0--0-0-|
|-----------------------------------------------------------------------------|
|-----------------------------------------------------------------------------|
Odvtedy blúdim, pátram v uliciach

1.Gitara
|-------------------------------------------------------------------------------------|
|----2----------3----------5------3----------2--------3------5------------------------|
|-----------------------------------0---------------------------------------2-0-------|
|-------2-sl-4----4-sl-5-----5---------4-------2-sl-4---4-sl-5--------------------0---|
|-0----------0---------0--------0----------0--------0--------0---0-3-h-4------------4-|
|-------------------------------------------------------------------------------------|
2.Gitara
|-------------------------------------------------------------------------------|
|----2----------3---------5--------3----3----2---------3--------5--------3----3-|
|-------------------------------------------------------------------------------|
|-------2-sl-4----4-sl-5----5-p-4----4---------2-sl-4----4-sl-5---5-p-4----4----|
|-0-----------------------------------------0-----------------------------------|
|-------------------------------------------------------------------------------|
3.Gitara
|-----------------------7--7-----5--5-5-----------------------7--7-----5--5-5-|
|-----------------------8--8-----5--5-5-----------------------8--8-----5--5-5-|
|-----------------------0--0-----7--7-7-----------------------0--0-----7--7-7-|
|--------------------------------0--0-0--------------------------------0--0-0-|
|-----------------------------------------------------------------------------|
|-----------------------------------------------------------------------------|
Že ťa raz nájdem a poviem : “Čau“

1.Gitara
|-------------------------------------------------------------------------------9-----------5---|
|----2---------3---------5----3----------------2---------3------5-----------------10------------|
|-----------------------------------------------------------------------8-sl-9-------5-sl-6---6-|
|------2-sl-4----4-sl-5----5-p4-------------------2-sl-4---4-sl-5-------------------------------|
|-0---------0---------0-------0---0-3-h-4--0-----------0--------0-------------------------------|
|-----------------------------------------------------------------------------------------------|
2.Gitara
|-------------------------------------------------------------------------------|
|----2----------3---------5--------3----3----2---------3--------5--------3----3-|
|-------------------------------------------------------------------------------|
|-------2-sl-4----4-sl-5----5-p-4----4---------2-sl-4----4-sl-5---5-p-4----4----|
|-0-----------------------------------------0-----------------------------------|
|-------------------------------------------------------------------------------|
3.Gitara
|-----------------------7--7-----5--5-5-----------------------7--7-----5--5-5-|
|-----------------------8--8-----5--5-5-----------------------8--8-----5--5-5-|
|-----------------------0--0-----7--7-7-----------------------0--0-----7--7-7-|
|--------------------------------0--0-0--------------------------------0--0-0-|
|-----------------------------------------------------------------------------|
|-----------------------------------------------------------------------------|
Odvtedy blúdim, pátram v uliciach

1.Gitara
|-----------------------------------------------------------------------|
|---2----------3---------5--------3---------2---------3-----5---5-5-5-5-|
|-----------------------------------0---------------------------0-0-0-0-|
|------2-sl-4----4-sl-5----5----------4-------2-sl-4---4-sl-5---5-5-5-5-|
|-0---------0---------0---------0--------0---------0--------0---0-0-0-0-|
|-----------------------------------------------------------------------|
2.Gitara
|-----------------------------------------------------------------------|
|----2----------3---------5-------3----3----2--------3------5---5-5-5-5-|
|---------------------------------------------------------------0-0-0-0-|
|-------2-sl-4----4-sl-5---5-p-4----4---------2-sl-4---4-sl-5---5-5-5-5-|
|-0---------------------------------------0-----------------0---0-0-0-0-|
|-----------------------------------------------------------------------|
3.Gitara
|----------------------7--7-----5--5-5----------------------7---7-7-7-5-|
|----------------------8--8-----5--5-5----------------------8---8-8-8-5-|
|----------------------0--0-----7--7-7----------------------0---0-0-0-7-|
|-------------------------------0--0-0--------------------------------0-|
|-----------------------------------------------------------------------|
|-----------------------------------------------------------------------|

Že ťa raz nájdem a poviem : “Čau“



Čas: 2:25 – 3:29
(2.Gitara hrá akordy v klasickej polohe, 1.gitara ich hrá v barovom prevedení)

[Esus4]Stá[E]le za [Esus4]tebou ute[E]kám
chcem za tebou [G, D]ísť[Dsus2]
no neviem [A]kam[G, A]
[G]Ísť [D]preč([Dmisus4, D, Dsus2]), za tebou [G]ísť [D]preč[Dsus2]
no neviem [A]kam[G, A]

Ref:
[E]Raz ťa nájdem, [D]aj keď to [Dmisus4]roky potr[A]vá[G, A].
[E]Potom ti poviem, [D]že to bola, [Dmisus4]že to bola krutá [A]hra[G, A].
[E]Raz ťa nájdem, [D]aj keď to [Dmisus4]roky potr[A]vá[G, A].
[E]Potom ti poviem, [D]že to bola, [Dmisus4]že to bola krutá [E]hra.
od teba.

Čas: 3:29- 3:42

1.Gitara
|--------------------------------------------------------------------------------------|
|----2-----------3----------5----3--------------2---------3------5---5-----------------|
|-----------------------------------------------------------------------7-6-7-p-6------|
|--------2-sl-4----4--sl-5----5-p4-----------------2-sl-4---4-sl-5-----------------7-5-|
|-0-----------0----------0-------0--0-3-h-4--0----------0--------0---------------------|
|--------------------------------------------------------------------------------------|
2.Gitara
|-------------------------------------------------------------------------------|
|----2----------3---------5--------3----3----2---------3--------5--------3----3-|
|-------------------------------------------------------------------------------|
|-------2-sl-4----4-sl-5----5-p-4----4---------2-sl-4----4-sl-5---5-p-4----4----|
|-0-----------------------------------------0-----------------------------------|
|-------------------------------------------------------------------------------|
3.Gitara
|-5-----------------------------------------5--------------------------------|
|-5-----------------------------------------5--------------------------------|
|-6-----------------------------------------6--------------------------------|
|-7-----------------------------------------7--------------------------------|
|-7-----------------------------------------7--------------------------------|
|-5-----------------------------------------5--------------------------------|

1.Gitara
|-------------------------------------------------------------------------------|
|--2---------3---------5-----3--------------2--------3--------5-----3-----------|
|-------------------------------------------------------------------------------|
|----2-sl-4----4-sl-5----5-p4-----------------2-sl-4---4-sl-5---5-p-4-----------|
|-0-------0---------0-------0---0-3-h-4--0---------0--------0-------0--0-3-h-4-|
|-------------------------------------------------------------------------------|
2.Gitara
|-------------------------------------------------------------------------------|
|----2----------3---------5--------3----3----2---------3--------5--------3----3-|
|-------------------------------------------------------------------------------|
|-------2-sl-4----4-sl-5----5-p-4----4---------2-sl-4----4-sl-5---5-p-4----4----|
|-0-----------------------------------------0-----------------------------------|
|-------------------------------------------------------------------------------|
3.Gitara
|-5-----------------------------------------5--------------------------------|
|-5-----------------------------------------5--------------------------------|
|-6-----------------------------------------6--------------------------------|
|-7-----------------------------------------7--------------------------------|
|-7-----------------------------------------7--------------------------------|
|-5-----------------------------------------5--------------------------------|
Ú jejé

Čas: 3:42 – 4:02

1.Gitara
|-----5-------5----------7--7-----5--5-5-------5-----5--------7--7-----5--5-5-|
|-----5-------7----------8--8-----5--5-5-------5-----7--------8--8-----5--5-5-|
|-----6-------7----------0--0-----7--7-7-------6-----7--------0--0-----7--7-7-|
|-7---7-------7-------------------0--0-0----7--7-----7-----------------0--0-0-|
|-7-----------5-----------------------------7--------5------------------------|
|-5-----------------------------------------5---------------------------------|
2.Gitara
|-------------------------------------------------------------------------------|
|----2----------3---------5--------3----3----2---------3--------5--------3----3-|
|-------------------------------------------------------------------------------|
|-------2-sl-4----4-sl-5----5-p-4----4---------2-sl-4----4-sl-5---5-p-4----4----|
|-0-----------------------------------------0-----------------------------------|
|-------------------------------------------------------------------------------|
Para papá…

1.Gitara
|-----5-------5----------7--7-----5--5-5-------5-----5--------7--7-----5--5-5-|
|-----5-------7----------8--8-----5--5-5-------5-----7--------8--8-----5--5-5-|
|-----6-------7----------0--0-----7--7-7-------6-----7--------0--0-----7--7-7-|
|-7---7-------7-------------------0--0-0----7--7-----7-----------------0--0-0-|
|-7-----------5-----------------------------7--------5------------------------|
|-5-----------------------------------------5---------------------------------|
2.Gitara
|-------------------------------------------------------------------------------|
|----2----------3---------5--------3----3----2---------3--------5--------3----3-|
|-------------------------------------------------------------------------------|
|-------2-sl-4----4-sl-5----5-p-4----4---------2-sl-4----4-sl-5---5-p-4----4----|
|-0-----------------------------------------0-----------------------------------|
|-------------------------------------------------------------------------------|

1.Gitara
|-----5-------5----------7--7-----5--5-5-------5-----5--------7--7-----5--5-5-|
|-----5-------7----------8--8-----5--5-5-------5-----7--------8--8-----5--5-5-|
|-----6-------7----------0--0-----7--7-7-------6-----7--------0--0-----7--7-7-|
|-7---7-------7-------------------0--0-0----7--7-----7-----------------0--0-0-|
|-7-----------5-----------------------------7--------5------------------------|
|-5-----------------------------------------5---------------------------------|
2.Gitara
|-------------------------------------------------------------------------------|
|----2----------3---------5--------3----3----2---------3--------5--------3----3-|
|-------------------------------------------------------------------------------|
|-------2-sl-4----4-sl-5----5-p-4----4---------2-sl-4----4-sl-5---5-p-4----4----|
|-0-----------------------------------------0-----------------------------------|
|-------------------------------------------------------------------------------|


Čas: 4:02 – 4:50
Ref:
[E]Raz ťa nájdem, [D]aj keď to [Dmisus4]roky potr[A]vá[G, A].
[E]Potom ti poviem, [D]že to bola, [Dmisus4]že to bola krutá [A]hra[G, A].
[E]Raz ťa nájdem, [D]aj keď to [Dmisus4]roky potr[A]vá[G, A].
[E]Potom ti poviem, [D]že to bola, [Dmisus4]že to bola krutá [E]hra.
od teba.






 
»
Tvoje obľúbené položky
Tvoje obľúbené položky
»
Najnovšie videá
Najnovšie videá

AYA - Lietaj, dýchaj, buď (Official Vi

Marks - 05.ZRKADLO //prod. Hoodini// [OF

Marks - 07.ČASOM //prod. Grizzly// [OFF

END:CIV: Resist or Die

Chapter 29 - The Man in the Iron Mask by

Part 05 - The Man in the Iron Mask Audio

»
Najnavštevovanejšie piesne
Najnavštevovanejšie piesne
Zbohom buď, lipová lyžka - akordy a text

Katarínka - akordy a text

S Tebou či bez Teba - akordy a text

Zbohom buď, lipová lyžka - text

Hora, hora - akordy a text

Za rána, za rosy - text

Klope Janko - akordy a text

Hoja, hoja - akordy a text

Biele dievča, biele... - akordy a text

Nos mi červenie - akordy a text

Zbohom buď lipová lyžka - taby

Láska bože láska - akordy a text

Keď zbojník umieral - text

Kde ona nocuje - text

Anička, dušička - text

Keď som išiel za ránky - text

Kde ona nocuje - akordy a text

Dievča umieralo - akordy a text

Prespánka - akordy a text

Z nových ciest - akordy a text

viac

»
Nové albumy interpreta
Nové albumy interpreta
CD Arzen Teraz nam vyhrava
CD Teraz nam
vyhrava



home | interpreti | register piesní | cd & dvd shop | pripomienky/nápady | kontakt | ochrana údajov | inzercia

TOPlist