Ozzy Osbourne

piesne (207)

  texty (133) / preklady (36)
  akordy (17) / taby (32)
  noty (0) / slideshow (0)

články (211)
fotogaléria
diskusia
videá
diskografia
v obchode
odkazy
koncerty
sťahuj



pridaj vlastný článok

Black Sabbath:
Ozzy Osbourne sa rozplakal ako malé dieťa: Všetko je to kvôli jeho synovi! - Ozzy Osbourne sa rozplakal ako malé dieťa: Všetko je to kvôli jeho synovi! ... - cas.sk


Ozzy Osbourne:
Ozzy Osbourne v animovaném filmu - 20. 6. 2019 | Otta Seemann zpět na výpis Ozzy Osbourne propůjčí svůj hlas jedné ... - radiobeat.cz


Black Sabbath:
Black Sabbath by mohli udělat ještě jeden rozlučkový koncert i s Billem
Wardem
- Vydáno: 29.05.2019 15:42 v sekci Novinky - Ondřej Kocáb SDÍLET: Sdílet na Face... - musicserver.cz


Ozzy Osbourne:
Ozzy Osbourne o Billu Wardovi - 28. 5. 2019 | Otta Seemann zpět na výpis Frontman a jeden ze zakladatelů skupiny Bla... - radiobeat.cz


Judas Priest:
Ozzy se ještě jednou vrátí do Prahy. Přiveze Judas Priest - středa, 08 květen 2019 11:30 Napsal(a) Jirka Mimra velikost písma zmenšit velikost ... - musicweb.cz


Black Sabbath:
Ďalšia legenda ruší koncerty Zvládne ešte návrat na pódiá? - 05.04.2019 Topstar.sk Hudba redakcia/MM REDAKCIA/MM Ďalšia legenda ruší koncerty! Zvl... - noviny.sk


Ozzy Osbourne:
Smolař Ozzy. Ozvaly se mu následky staré bouračky - spark News, ozzy osbourne, live, tour 06.04.19 11:00 Smolař Ozzy. Ozvaly se mu následk... - spark-rockmagazine.cz


Black Sabbath:
Zdrvujúca správa pre fanúšikov: Ozzy Osbourne zrušil všetky tohtoročné
koncerty
- Zdrvujúca správa pre fanúšikov: Ozzy Osbourne zrušil všetky tohtoročné koncerty ... - cas.sk


Ozzy Osbourne:
Ozzy Osbourne smúti za svojim gitaristom: Bernie bol jemná duša so zlatým
srdcom
- Ozzy Osbourne smúti za svojim gitaristom: Bernie bol jemná duša so zlatým srdcom ... - cas.sk


Ozzy Osbourne:
Ozzy Osbourne dostal vážnu formu chrípky: Je hospitalizovaný, lekári
neskrývajú veľké obavy
- Ozzy Osbourne dostal vážnu formu chrípky: Je hospitalizovaný, lekári neskrývajú ve... - cas.sk


 

Ozzy Osbourne

Fanúšikov: 19



A B C Č D E F G H CH I J K L Ľ M N O P Q R S Š T U V W X Y Z Ž



ako:
Ozzy Osbourne - Mama I'm Coming Home Solo
Ozzy Osbourne - Mama I'm Coming Home Solo

tlač

edituj
Rok vzniku: 1991
Pesničku videlo 2912 návštevníkov.

Kvalita tabov : bez hodnotenia
Hodnotilo ľudí: 0 ohodnoť aj ty
Prispievateľ:

kuba16131
  *** Autor textu: Lemmy Kilmister *** Autor hudby: Ozzy Osbourne

E|-------------------------------------------------------------------------------------------------------------|
H|-------------------------------------12/14---12---10----12---10---10h12p10---9----------------|
G|-----------9-----------9---11b--------------------------------------------------------------------------|
D|-9--11-------11-----------------------------------------------------------------------------------------|
A|-----------------------------------------------------------------------------------------------------------|
E|-----------------------------------------------------------------------------------------------------------|


E|-------------------------------------------------------------------------------------------------------------|
H|-------------------------------------12/14---12---10----12---10---10h12p10---9----------------|
G|-----------9-----------9---11b--------------------------------------------------------------------------|
D|-9--11-------11-----------------------------------------------------------------------------------------|
A|-----------------------------------------------------------------------------------------------------------|
E|-----------------------------------------------------------------------------------------------------------|




E|----------------------------------------------------------------------|
H|----------------------------------------------------------------------|
G|-------------9---------9-----11b---9----11-----9----------------|
D|--9--11---------11-------------------------------------------------|
A|----------------------------------------------------------------------|
E|-----------------------------------------------------------------------|



E|---16--14--12—14b---12---14--------16--17-18-19b--16----------------------|
H|-----------------------------------------------------------------------------19----17---|
G|-------------------------------------------------------------------------------------------|
D|------------------------------------------------------------------------------------------|
A|------------------------------------------------------------------------------------------|
E|------------------------------------------------------------------------------------------|




 
»
Tvoje obľúbené položky
Tvoje obľúbené položky
»
Najnovšie videá
Najnovšie videá

Mama, I'm Coming Home Guitar Lesson - Oz

Mama I'm Coming Home (Ozzy Osbourne) - S

Ozzy Osbourne - "Mama, I'm Coming Home"

Mama I'm Coming Home - Solo Performance

Ozzy Osbourne - Mama I'm Coming Home SO

Mamma I'm Coming Home Solo by Ozzy - Gui

»
Najnavštevovanejšie piesne
Najnavštevovanejšie piesne
»
Nové albumy interpreta
Nové albumy interpreta
CD Osbourne Ozzy The ultimate sin
CD The
ultimate
sin
BRD Osbourne Ozzy God bless ozzy osbourne [bluray]
BRD God bless
ozzy
osbourne
[bluray]
BK Ozzy Osbourne Book The story of the ozzy...
BK The story
of the
ozzy...
DVD Osbourne Ozzy God bless ozzy osbourne
DVD God bless
ozzy
osbourne
BR Osbourne Ozzy God bless ozzy osbourne
BR God bless
ozzy
osbourne
VINYL Osbourne Ozzy Blizzard of ozz [vinyl]
VINYL Blizzard
of ozz
[vinyl]



home | interpreti | register piesní | cd & dvd shop | pripomienky/nápady | kontakt | ochrana údajov | inzercia

TOPlist