Pink Floyd

piesne (592)

  texty (242) / preklady (98)
  akordy (203) / taby (236)
  noty (0) / slideshow (0)

články (154)
fotogaléria
diskusia
videá
diskografia
v obchode
odkazy
koncerty
sťahuj



pridaj vlastný článok

Pink Floyd:
BLOG: Nevyhnutelný konec kamenných prodejen s hudbou - Vydáno před 5 hodinami | autor: Aleš Harazim Padl velikán největší. Bontonl... - ireport.cz


Depeche Mode:
TOP 10 koncertních filmů: Depeche Mode, Pink Floyd, Metallica i Queen - Vydáno včera | autor: Iva Hadj Moussa Milujete živou muziku? A chodíte rádi d... - ireport.cz


Pink Floyd:
Pink Floyd připomenou svou - Pink Floyd připomenou svou post-watersovskou éru výpravným boxsetem Vydáno: 30.08... - musicserver.cz


Nick Mason:
Do Prahy přijíždí Nick Mason, bývalý bubeník Pink Floyd. Se svou kapelou
navazuje na počátky psychedelické hudby
- Někdejší bubeník kapely Pink Floyd Nick Mason (na snímku před Viktoriiným a Albert... - ihned.cz


David Gilmour:
Pink Floyd za všechny peníze. Aukce Gilmourových kytar vynesla 21,5 milionu
dolarů
- 0 „Neplánuji žádnou šílenost.“ Turné k nové desce Davida Gilmoura se nese v.... - lidovky.cz


Nick Mason:
Nick Mason z Pink Floyd získal titul CBE - včera o 08:30 | redakcia Anglický bubeník Nick Mason, známy z už nefungujúcich P... - zoznam.sk


David Gilmour:
Část gearu Davida Gilmoura míří do aukce - David Gilmour, kytarista artrockových titánů Pink Floyd, se rozhodl nabídnou v aukci ... - frontman.cz


Nick Mason:
Zakladajúci člen Pink Floyd Nick Mason vystúpi so svojou kapelou v Prahe - pred 44 minútami | redakcia Nick Mason's Saucerful of Secrets je anglická rocková f... - zoznam.sk


David Gilmour:
Chcete kousek Pink Floydů? Frontman kapely David Gilmour prodá v aukci 120
svých kytar
- 0 Pink Floyd v roce 1971 | na serveru Lidovky.cz | aktuální zprávy PINK FLOYD V ROC... - lidovky.cz


Pink Floyd:
Revivalová skupina Pink Floyd zrušila koncerty v Izraeli, po výzve Watersa - pred 55 minútami | redakcia Britská revivalová skupina hrajúca hudbu Pink Floyd od... - zoznam.sk


 

Pink Floyd

Fanúšikov: 97



A B C Č D E F G H CH I J K L Ľ M N O P Q R S Š T U V W X Y Z Ž



ako:
Pink Floyd - Wish You Were Here
Pink Floyd - Wish You Were Here

tlač

edituj
Rok vzniku: 1975
Poznámka: Nepoznám niektoré zna?ky k tabom tak som to napísal slovne

Pesničku videlo 22621 návštevníkov.

Kvalita tabov :
Hodnotilo ľudí: 2 ohodnoť aj ty
Prispievateľ:

Navy
Autor hudby: Pink Floyd
Intro:

D pod akordmi znamená, že akord sa hrá od struny E alebo A po strunu e, teda smerom dole a H zas naopak



e -----------3-3--3-3---------3-3--3--------------3-3--3-3----------3-3--3-
h -----------3-3--3-3---------3-3--3--------------3-3--3-3----------3-3--3-
g -----------0-0--0-0--0------0-0--0--------------0-0--0-0--0-------0-0--0-
D -----0--2--2-2--2-2----2-0--0-0--0--------0--2--2-2--2-2----2--0--0-0--0-
A -0^2-------2-2--2-2---------2-2--2----2^0-------2-2--2-2----------2-2--2-
E -----------0-0--0-0---------3-3--3--3-----------0-0--0-0----------3-3--3-
D H H D H D D D H H D H D D

e -------------3-3--3-----------3-3-3----3-3-3------------3--3-3-3---------
h -------------3-3--3-----------3-3-3----3-3-3------------3--3-3-3---------
g -------------0-0--0-----------2-2-2----2-2-2------------0--0-0-0---------
D -------0--2--2-2--2--0-2------2-2-2----2-2-2------0--2--2--2-2-2--2-0----
A ---2^0-------2-2--2------0-2--0-0-0-0--0-0-0--0^2-------2--2-2-2------2-0
E -3-----------0-0--0-------------------------------------0--0-0-0---------
D H H D H D D H D D H D H

e --3-3-3----3-3--------3--3-3-3-3--3-3--3--3-3-3--3-----------------------
h --3-3-3----3-3--------3--3-3-3-3--3-3--3--3-3-3--3-----------------------
g --2-2-2----2-2--------0--0-0-0-0--0-0--0--0-0-0--0-----------------------
D --2-2-2----2-2--------0--0-0-0-0--0-0--0--0-0-0--0--------2--0-----------
A --0-0-0-0--0-0-0^2-0--2--2-2-2-2--2-2--2--2-2-2--2----0^2----------------
E ----------------------3--3-3-3-3--3-3--3--3-3-3--3--3--------------------
D H D D H D D D D D D H D D H D D



Začiatočné sólo:

* nebrnká sa
b Ľ. rukov strunu natiahneme smerom hore zvýši, sa tým tón o dva poltóny



e -------------------------------------------------------------------------
h -----3--5---3---------------3/5*-5/3*-3/5*-5/3*---3/5*-5/3*-----------3--
g -2/4------4---420---------------------2/4*-4/2*-0-2/4*-4/2*-0-4--2/4*---4
D -----------------0------0-0-----------------------------------5----------
A --------------------1/2--------------------------------------------------
E -------------------------------------------------------------------------

e ---------------------------------------------------------3---------------
h -5-5b--3---3-------3-4------------3---5-5b-5-3-5---------3---------------
g ---------4---2--4b-----4b-2--2/4*---4------------2-4b-2--0---------------
D ---------------------------------------------------------0---------------
A ---------------------------------------------------------2---------------
E ---------------------------------------------------------3---------------
DDHD


Akordy po sóle:

Všetky akordy sa hrajú D DH D DH D

C D Ami G D C Ami G (2x) Intro C D Ami G D C Ami G Intro

 
»
Tvoje obľúbené položky
Tvoje obľúbené položky
»
Najnovšie videá
Najnovšie videá

Pink Floyd - Wish You Were Here (with ly

David Gilmour Wish you were here live un

Pink Floyd - Wish You Were Here - Pulse

Wish You Were Here

Pink Floyd - Wish You Were Here

Pink Floyd-Wish You Were Here

»
Najnavštevovanejšie piesne
Najnavštevovanejšie piesne
Wish You Were Here - akordy a text

Another Brick in the Wall, part 2 - akordy a text

High Hopes - akordy a text

Wish You Were Here Chords - akordy a text

Another Brick In The Wall Part 1 - akordy a text

Hey You - akordy a text

Comfortably Numb - akordy a text

High Hopes - preklad

Wish You Were Here - taby

The Wall - Comlete - akordy a text

Wish You Were Here (česky) - akordy a text

Wish You Were Here - taby

Mother - akordy a text

Another Brick In The Wall Part 3 - akordy a text

Wish You Were Here - text

Another Brick In The Wall - text

Time - akordy a text

Money - akordy a text

Goodbye Blue Sky - akordy a text

Wish You Were Here-Cz - preklad

viac

»
Nové albumy interpreta
Nové albumy interpreta
PTCH Pink Floyd Dark side of the moon
PTCH Dark side
of the
moon
PTCH Pink Floyd Hammers
PTCH Hammers
PTCH Pink Floyd Distressed dark side of the moon
PTCH Distressed
dark side
of the
moon
PT Pink Floyd Cosmic faces
PT Cosmic
faces
HRNEK Pink Floyd Animals [hrnČek]
HRNEK Animals
[hrnček]
HRNEK Pink Floyd Dsotm 40th [hrnČek]
HRNEK Dsotm 40th
[hrnček]



home | interpreti | register piesní | cd & dvd shop | pripomienky/nápady | kontakt | ochrana údajov | inzercia

TOPlist